» » »

Titus Andronicus, Titus Andronicus Tabs (ver.1)

Artists:  A B C D E F G H I J K L M N O P Q R S T U V W X Y Z # 

Titus Andronicus Tabs (ver.1)

Titus Andronicus Tabs
 Rating:
4.4/5 (7 votes)
Titus Andronicus lessons Tabs too difficult? Try these video lessons and learn fast
                
The first tab for this song has some bad errors, so I decided to submit
my own version which is hopefully more accurate

Intro

E|-11-14-11-------------------------------------------------|
B|----------------------------------------------------------|
G|------------9---9---9---9-11------------------------------|
D|----------9-9-9-9-9-9-9-9-11------------------------------|
A|----------9-7-9-7-9-7-9-7-9-------------------------------|
E|----------7---7---7---7-----------------------------------|

Main riff
E|----------------------------------------------------------|
B|----------------------------------------------------------|
G|---9---9---9-11-------------------------------------------|
D|-9-9-9-9-9-9-11-9-----------------------------------------|
A|-9-7-9-7-9-7-9--9-----------------------------------------|
E|-7---7---7------7-----------------------------------------|

Repeat until "it doesn't matter what you do", then play

E|----------------------------------------------------------|
B|----------------------------------------------------------|
G|-9-------9-------8-------8-------9---11-------------------|
D|-9---9---9---9---8---6---8---6---9---11-------------------|
A|-7---9---7---9---6---6---6---6---7---9--------------------|
E|-----7-------7-------4-------4----------------------------|

E|----------------------------------------------------------|
B|----------------------------------------------------------|
G|---9---9---9-1211--9---9---9-11-9---121211----------------|
D|-9-9-9-9-9-9-12119-9-9-9-9-9-11-9---121211----------------|
A|-9-7-9-7-9-7-109-9-7-9-7-9-7-9--7---10109-----------------|
E|-7---7---7-------7---7---7--------------------------------|

"your life is over"

E|----------------------------------------------------------|
B|----------------------------------------------------------|
G|---9---9---9-1311---9---9---9-1311------------------------|
D|-9-9-9-9-9-9-1311-9-9-9-9-9-9-1311-5-7--------------------|
A|-9-7-9-7-9-7-119--9-7-9-7-9-7-119--5-7--------------------|
E|-7---7---7--------7---7---7--------3-5--------------------|

"o-o-o-vah"
E|----------------------------------------------------------|
B|----------------------------------------------------------|
G|-8---8---8---8---8---8---8-9-11---------------------------|
D|-8-6-8-6-8-6-8-6-8-6-8-4-8-9-11---------------------------|
A|-6-6-6-6-6-6-6-6-6-6-6-6-6-7-9----------------------------|
E|---4---4---4---4---4---4----------------------------------|
                                ^
                                |(this one)
(percussion-only part, play chord F# in the end)

final part                             YOUR LIFE IS OVER!
E|-----------------|------------------|---------------------|
B|-----------------|------------------|---------------------|
G|---9---9---9-1311|---11--11--111513-|-11-11-11-11---------|
D|-9-9-9-9-9-9-1311|-1111111111111513-|-11-11-11-11-11------|
A|-9-7-9-7-9-7-119-|-119-119-119-1311-|-9--9--9--9--11------|
E|-7---7---7-------|-9---9---9--------|-------------9-------|
(repeat first bar 2 times, and second 4 times or so)
            
Submit corrections

comments powered by Disqus
↑ Back to top | Titus Andronicus Tabs for Titus Andronicus. Lyrics for acoustic guitar and electric guitar. Tablatures and chords are parodies/interpretations of the original songs. You may use it for private study, scholarship, research or language learning purposes only