» » »

No Future Tabs (ver.1)

Artists:  A B C D E F G H I J K L M N O P Q R S T U V W X Y Z # 

No Future Tabs (ver.1)

Titus Andronicus
Rating:
4/5 (3 votes)

Hard to play? Try these video lessons and learn fast.
                -------------------------------------------------------------------------------
                             Titus Andronicus - No Future
-------------------------------------------------------------------------------

Tuning: Standard


I couldn't find any Titus Andronicus tabs so I decided to try to make one myself. I came 
with a few of the lead riffs but it is in no way complete.

Riff One.
e|-----------------------------------------------------------------------------|
B|----------3------------------------------------3-----------------------------|
G|--0-0-2/4-----4-4-4-2-0------0---------0-0-2/4------4-4-4-2-0-------0--------|
D|------------------------2-------------------------------------2--------------|
A|-----------------------------------------------------------------------------|
E|-----------------------------------------------------------------------------|


e|-----------------------------------------------------------------------------|
B|----------3---------------------------------3----------------------3---------|
G|--0-0-2/4----4-4-4-2-0-5-----0------2-4-2-4---4-2-0--5--0--0-0-2/4---4/2-0---|
D|-----------------------------------------------------------------------------|
A|-----------------------------------------------------------------------------|
E|-----------------------------------------------------------------------------|

Riff Two
e|---------------------------------------------------------------------------|
B|--12-12-12-10-8-10-8-------12-12-12-10-8-10-12-----------------------------|
G|---------------------------------------------------------------------------|
D|---------------------------------------------------------------------------|
A|---------------------------------------------------------------------------|
E|---------------------------------------------------------------------------|


e|---------------------------------------------------------------------------|
B|--12-12-12-10-8-10-13-8-10--15-15-15-13-12-13-12---------------------------|
G|---------------------------------------------------------------------------|
D|---------------------------------------------------------------------------|
A|---------------------------------------------------------------------------|
E|---------------------------------------------------------------------------|
            
Hard to play? Try these video lessons and learn fast. | Correct




comments powered by Disqus
↑ Back to top | Tablatures and chords are parodies/interpretations of the original songs. You may use it for private study, scholarship, research or language learning purposes only