>
 >
Four Score And Seven

Four Score And Seven Guitar Tabs

Titus Andronicus - Four Score And Seven chords, tabs, tablatures, lyrics

Guitar lessons | Add/correct | Request | Top 50 tabs Artists:  A B C D E F G H I J K L M N O P Q R S T U V W X Y Z 0-9

Four Score And Seven Guitar Tabs – Titus Andronicus

CD, Sheet music, Poster

Do you like Four Score And Seven? Share with your friends now
ChordsTabsUkulele
Four Score & Seven  Titus Andronicus
This is what I hope is a more complete version that Ive worked out between the 
live and studio versions, plus the tab and comments on the tab.
Capo on 5
Chords: Csus4 32xxxx
        C     33xxxx
        Am    xx221x
        C5    x32xxx
        E5    02xxxx
Csus4
Csus4                                                     C
There'll be no more counting the cars on the garden state parkway
                    Csus4                                 C
Nor waiting for the Fung Wah bus to carry me to who-knows-where
Csus4                                              C        
And when I stand tonight, 'neath the lights of the Fenway
           Csus4                                      C
Will I not yell like hell for the glory of the Newark Bears?

Csus4                                          C
'Cause where I'm going to now, no one can ever hurt me
Csus4                                         C
Where the well of human hatred is shallow and dry
Csus4                                           C
No, I never wanted to change the world, but I'm looking for a new New Jersey
C                      Am                    Csus4
'Cause tramps like us, baby, we were born to die

Interlude (1:45)
e|--------------------------------------------------------------------------|
B|--------------------------------------------------------------------------|
G|--------------------------------------------------------------------------|
D|--12h14-14-12h14-12h16p12----------12h14-14-12h14-12h14p12----------------|
A|--------------------------14-14-14-------------------------14-14-14-------|
E|--------------------------------------------------------------------------|

e|--------------------------------------------------------------------------|
B|--------------------------------------------------------------------------|
G|--------------------------------------------------------------------------|
D|--12h14-14-12h14-12h14-14b18r12-------------9/12-12-12-12-12-12-9-9-9-----|
A|--------------------------------14-14-12/9--------------------------------|
E|--------------------------------------------------------------------------|

e|--------------------------------------------------------------------------|
B|--------------------------------------------------------------------------|
G|--------------------------------------------------------------------------|
D|--12h14-14-12h14-12h14p12----------12h14-14-12h14-12h14p12----------------|
A|--------------------------14-14-14-------------------------14-14-14-------|
E|--------------------------------------------------------------------------|

e|--------------------------------------------------------------------------|
B|--------------------------------------------------------------------------|
G|--------------------------------------------------------------------------|
D|--12h14-14-12h14-12h14-14b18r12-------------------------------------------|
A|--------------------------------14-14-12/9-9/19v--------------------------|
E|--------------------------------------------------------------------------|

e|--------------------------------------------------------------------------|
B|--------------------------------------------------------------------------|
G|--------------------------------------------------------------------------|
D|--7h9-9-9-7h9-9-9-7h9-9-9-7h9-9-9-12h14-14-14-12h14-14-14-----------------|
A|--------------------------------------------------------------------------|
E|--------------------------------------------------------------------------|

e|--------------------------------------------------------------------------|
B|--------------------------------------------------------------------------|
G|--------------------------------------------------------------------------|
D|--12h14-14-14-12h14-14-14-12h14-14-14-12h14-1414-7h9-9-9-7h9-9-9------|
A|--------------------------------------------------------------------------|
E|--------------------------------------------------------------------------|

e|--------------------------------------------------------------------------|
B|--------------------------------------------------------------------------|
G|--------------------------------------------------------------------------|
D|--12h14-14-14-12h14-14-14-12h14-14-14-12h14-14-14-12p9-9-912p9-9-9-------|
A|--------------------------------------------------------------------------|
E|--------------------------------------------------------------------------|

e|-----------------------------------------------------------|
B|-----------------------------------------------------------|
G|--------------------12p9-9-9-12p9-9-9-12p9-9-9-12b14r12p9--|
D|--12p9-9-9-12p9-9------------------------------------------|
A|-----------------------------------------------------------|
E|-----------------------------------------------------------|

e|---------------------------------------------------------------------|
B|---------------------------------------------------------------------|
G|--------------------------------------------12p9-12p9-12p9-----------|
D|--12p9-9-9-12p9-9-9-12p9-9-9-12p9-9-9--------------------------------|
A|---------------------------------------------------------------------|
E|---------------------------------------------------------------------|

e|-----------------------------------------------------------------------|
B|-----------------------------------------------------------------------|
G|--12-12b14-b14-b14-b14-b16-b16-b16-b16-------------9-------------------|
D|---------------------------------------/9-12--9-12---12-9--9-----------|
A|-------------------------------------------------------------12p10-----|
E|-------------------------------------------------------------------12--|

e|------------------------------------------------------------------|
B|------------------------------------------------------------------|
G|----------------------------------------------9-------------------|
D|--/12-12--12-9-12-9-12b14-12-9v\---/9-12-9-12---12-9--9-----------|
A|--------------------------------------------------------12p10-----|
E|--------------------------------------------------------------12--|

e|---------------------------------------|
B|---------------------------------------|
G|---------------------------------------|
D|--/9-12--12-9-12-9-12b14-12-9v-/0------|
A|---------------------------------------|
E|---------------------------------------|

Verse 2 

C

Csus4                         E5
I'm doing 70 on 17, I'm doing 80 over 84
C                                                    Csus4
And I'll never let the Meritt Parkway magnetize me no more
                                                                E5
Give me a brutal Somerville summer, give me a cruel New England winter
            C                                                Csus4
Give me the great Pine Barrens so I can see them turned into splinters

Csus4
'Cause if I come in on a donkey
                       E5
Let me go out on a gurney
C                                                       Csus4
I want to realize too late I never should have left New Jersey

Instrumental break:
   Csus4  E5  C 

Fill/transition

(3:54)
e|---------------------------------------------------|
B|---------------------------------------------------|
G|---------------------------------------------------|
D|--/7-7-7--7-5-7-7b9-7-4v~~~~/5v--------------------|
A|---------------------------------------------------|
E|-----------------------------------15v/3-----------|

Csus4 C

e|----------------------------------------|
B|--3p1p0-------0-0--0-3p1p0--------------|
G|--------2p0h2--------------2p0h2h4p2p0--|
D|----------------------------------------|
A|----------------------------------------|
E|----------------------------------------| x8


Verse 3:

Fill/Riff (4:40-5:56)
e|-----------------------------|
B|----------------3h5-5-5p3p0--|
G|-0-0--000--0-0---------------|
D|-0-0--000--0-0---------------|
A|-2-2--222--2-2---------------|
E|-3-3--333--3-3---------------|

Slide occasionally from 3 to 20, slowly, as riff builds

Csus4
I sense the enemy
They're rustling around in the trees
Oh, I thought I had gotten away
But they followed me to 02143

Woe, woe is me
No one knows the trouble I see
When they hang Jeff Davis from a sour apple tree
I'll sit beneath the leaves and weep

None of us shall be saved
Every man will be a slave
For John Brown's body lies a'mouldring in the grave
And there's rumblings down in the cave

So if it's time for choosing sides
And to show this dirty city how we do the Jersey Slide
And if it deserves a better class of criminal
Then I'm'a give it to them tonight

So we'll rally around the flag, rally around the flag
Rally around the flag, boys, rally once again, shouting the Battle Cry of Freedom
Rally around the flag, rally around the flag
Glory, glory, hallelujah, His truth is marching on

e|----------------------------------------|
B|--3p1p0-------0-0--0-3p1p0--------------|
G|--------2p0h2--------------2p0h2h4p2p0--|
D|----------------------------------------|
A|----------------------------------------|
E|----------------------------------------|

e|----------------------------------------|
B|--5p3---------3--3-3-5p3---------3------|
G|------5-5p4h5------------5-5p4h5---5p4--|
D|----------------------------------------|
A|----------------------------------------|
E|----------------------------------------|

e|----------------------------------------|
B|--3p1p0-------0-0--0-3p1p0--------------|
G|--------2p0h2--------------2p0h2h4p2p0--|
D|----------------------------------------|
A|----------------------------------------|
E|----------------------------------------|

e|----------------------------------------|
B|--5p3---------3--3-3-5p3---------3------|
G|------5-5p4h5------------5-5p4h5---5p4--|
D|----------------------------------------|
A|----------------------------------------|
E|----------------------------------------|

e|-------------------------------------------------|
B|--7p5p3-3-------7--7-78p7p5-------5--5-5--------|
G|----------5p4h5--------------7p4h7---------------|
D|-------------------------------------------------|
A|-------------------------------------------------|
E|-------------------------------------------------|

e|-------------------------------------------------|
B|--8p7p5-7p5p3-5p3p1-3p1p0-1p0--------------------|
G|-----------------------------2-4p2p0-2p0---------|
D|----------------------------------------4--------|
A|-------------------------------------------------|
E|-------------------------------------------------|

Im not sure about the tapping that he does.  If you have a better version, email 
me and Ill post it.
e|--5h7-7-7-7-7-7-----------------------------------------------|
B|-----------------12p8p5p0h5h8h12-12p8p5p0h5h8h1210b12-10b12--|
G|--------------------------------------------------------------|
D|--------------------------------------------------------------|
A|--------------------------------------------------------------|
E|--------------------------------------------------------------|

e|--------------------------------------------------------------------------|
B|--------------------------------------------------------------------------|
G|--------------------------------------------------------------------------|
D|--12h14-14-12h14-12h16p12----------12h14-14-12h14-12h14p12----------------|
A|--------------------------14-14-14-------------------------14-14-14-------|
E|--------------------------------------------------------------------------|

e|--------------------------------------------------------------------------|
B|--------------------------------------------------------------------------|
G|--------------------------------------------------------------------------|
D|--12h14-14-12h14-12h14-14b18r12-------------9/12-12-12-12-12-12-9-9-9-----|
A|--------------------------------14-14-12/9--------------------------------|
E|--------------------------------------------------------------------------|

e|--------------------------------------------------------------------------|
B|--------------------------------------------------------------------------|
G|--------------------------------------------------------------------------|
D|--12h14-14-12h14-12h16p12----------12h14-14-12h14-12h14p12----------------|
A|--------------------------14-14-14-------------------------14-14-14-------|
E|--------------------------------------------------------------------------|

e|--------------------------------------------------------------------------|
B|--------------------------------------------------------------------------|
G|--------------------------------------------------------------------------|
D|--12h14-14-12h14-12h14-14b18r12-------------9/12-12-12-12-12-12-9-9-9-----|
A|--------------------------------14-14-12/9--------------------------------|
E|--------------------------------------------------------------------------|

e|--------------------------------------------------------------------------|
B|--------------------------------------------------------------------------|
G|--------------------------------------------------------------------------|
D|--12h14-14-12h14-12h16p12----------12h14-14-12h14-12h14p12----------------|
A|--------------------------14-14-14-------------------------14-14-14-------|
E|--------------------------------------------------------------------------|

e|----------------|
B|--3-3----3/15---|
G|----------------|
D|----------------|
A|----------------|
E|----------------|





Comments


Popular Titus Andronicus tabs & chords
Joset Of Nazareth's Blues Chords
Titus Andronicus Chords
To Old Friends And New Chords
Titus Andronicus Tabs
Upon Viewing Oregons Landscape With The Flood Of Detritus Tabs
Four Score And Seven Ukulele
No Future Part 3 Escape From No Future Ukulele
The Battle Of Hampton Roads Ukulele
The Dog Ukulele
Theme From Cheers Ukulele


Song lyrics



↑ Back to top | Tablatures and chords are parodies/interpretations of the original songs. You may use it for private study, scholarship, research or language learning purposes only
© 2014 AZChords.com Contact us | Privacy policy | DMCA | Add/correct tabs | Request tabs | Top 50 tabs