>
 >
Vossa Excelncia

Vossa Excelncia Guitar Tabs

Titas - Vossa Excelncia chords, tabs, tablatures, lyrics

Guitar lessons | Add/correct | Request | Top 50 tabs Artists:  A B C D E F G H I J K L M N O P Q R S T U V W X Y Z 0-9

Vossa Excelncia Guitar Tabs – Titas

CD, Sheet music, Poster

Do you like Vossa Excelncia? Share with your friends now
Tabs
          Artista: Titãs         
Música : Vossa Exelência (Ao vivo MTv)  
 
Introdução: 2x 
 
Guitarra 1: 
   C       Am      F        G 
e|----------------------------------| 
b|----------------------------------| 
G|-5--------------------------------| 
D|-5-------7--------3--------5------| 
A|-3-------7--------3--------5------| 
E|---------5--------1--------3------| 
 
Guitarra 2: 
                              
e|-----8-------8-------8---|-----8-|  A introdução é    e|------| 
b|---8-8-----8-8-----8-8-8-|---8-8-|  repetida 2x o     b|---8--|  
G|-5-----------------------|-------|  final da segunda  G|---5--| 
D|---------7---------------|-5-----|  é assim:          D|-5----| 
A|-----------------8-------|-------|                    A|------| 
E|-------------------------|-------|                    E|------| 
 
Canto 1: Faça os acordes nessa posição 
 
   C    Am   F   G 
e|-3----5----5------| 
b|-5----5----6---3--| 
G|-5----5----5---4--| 
D|---------------5--| 
A|------------------| 
E|------------------| 
 
           C                     Am 
Estão nas mangas dos Senhores Ministros 
     F                       G 
Nas capas dos Senhores Magistrados 
        C                     Am 
Nas golas dos Senhores Deputados 
        F                        G 
Nos fundilhos dos Senhores Vereadores 
       C                      Am  
Nas perucas dos Senhores Senadores  
    F      G          C            Am               F          G 
Senhores!  Senhores!  Senhores! (Minha Senhora!)  Senhores!  Senhores! 
 
Refrão: 
    F   G       F   G   F   G 
e|-------------------------------| 
b|------------------3------------| 
g|------------------4------------| 
D|------5-----------5------------| 
A|-3-3----5----3-3-----3-3--5----| 
E|-1-1------3--1-1-----1-1--3----| 
 
          F 
Filha da Puta! 
    G 
Bandido! 
    F 
Corrupto! 
     G 
Ladrão! 
 
   Bb  Dm   C 
e|-------------| 
b|-------------| 
G|-3---7---5---| 
D|-3---7---5---| 
A|-1---5---3---| 
E|-------------| 
 
 
    Bb 
Sorrindo para a câmera 
 
Sem saber que estamos vendo 
    Dm 
Chorando que dá pena 
        C 
Quando sabem que estão em cena 
    Bb 
Sorrindo para as câmeras 
                     
Sem saber que são filmados 
    Dm                      
Um dia o sol ainda vai nascer 
  C 
Quadrado 
 
Bb Dm F 
 
e|-------8-------8-------8--| 
b|-6-6-6-6-6-6-6-6-6-6-6-6--| 
G|-7-7-7-7-5-5-5-7-7-7-7-7--| 
D|-8-8-8---7-7-7---8-8-8----| 
A|--------------------------| 
E|--------------------------| 
 
 
Canto 2: Faça os acordes nessa posição 
 
   C    Am   F   G 
e|-3----5----5------| 
b|-5----5----6---3--| 
G|-5----5----5---4--| 
D|---------------5--| 
A|------------------| 
E|------------------| 
         C                     A 
Estão nas mangas dos Senhores Ministros 
     F                       G 
Nas capas dos Senhores Magistrados 
     C                      A 
Nas golas dos Senhores Deputados 
        F                        G 
Nos fundilhos dos Senhores Vereadores 
       C                      A 
Nas perucas dos Senhores Senadores   
 F      G          C            Am               F          G 
Senhores!  Senhores!  Senhores! (Minha Senhora!)  Senhores!  Senhores! 
 
 
Refrão: 
    F   G       F   G   F   G 
e|-------------------------------| 
b|------------------3------------| 
g|------------------4------------| 
D|------5-----------5------------| 
A|-3-3----5----3-3-----3-3--5----| 
E|-1-1------3--1-1-----1-1--3----| 
 
          G 
Filha da Puta! 
    F 
Bandido! 
    G 
Corrupto! 
    F 
Ladrão! 
                F   G 
e|------------|--------| 
b|-8-8-8-8...-|--------| 
G|------------|--------| 
D|------------|-3---5--| 
A|------------|-3---5--| 
E|------------|-1---3--| 
 
F  G   
Isso não prova nada! 
Sob pressão da opinião pública 
É que não haveremos de tomar nenhuma decisão! 
Vamos esperar que tudo caia no esquecimento 
Aí então... 
Faça-se a justiça! 
 
   Bb  Dm   C 
e|-------------| 
b|-------------| 
G|-3---7---5---| 
D|-3---7---5---| 
A|-1---5---3---| 
E|-------------| 
 
 
 Bb 
Sorrindo para a câmera 
 
Sem saber que estamos vendo 
    Dm 
Chorando que dá pena 
        C 
Quando sabem que estão em cena 
    Bb 
Sorrindo para as câmeras 
                     
Sem saber que são filmados 
    Dm                     F  
Um dia o sol ainda vai nascer 
 
Quadrado 
 
Bb Dm F 
 
e|-------8-------8-------8--| 
b|-6-6-6-6-6-6-6-6-6-6-6-6--| 
G|-7-7-7-7-5-5-5-7-7-7-7-7--| 
D|-8-8-8---7-7-7---8-8-8----| 
A|--------------------------| 
E|--------------------------| 
 
Vamos arrumar vossas acomodações, Excelência. 
 
 
Refrão: 3x 
    F   G       F   G   F   G 
e|-------------------------------| 
b|------------------3------------| 
g|------------------4------------| 
D|------5-----------5------------| 
A|-3-3----5----3-3-----3-3--5----| 
E|-1-1------3--1-1-----1-1--3----| 
 
          G 
Filha da Puta! 
    F 
Bandido! 
    G 
Corrupto! 
    F 
Ladrão!





Comments


Popular Titas tabs & chords
Bichos Escrotos Bass Tabs
Marvin 1 Bass Tabs
Pra Dizer Adeus 1 Bass Tabs
Marvin Chords
Sonifera Ilha Chords
Antes De Voce Ukulele
Enquanto Houver Sol Ukulele
Flores Ukulele
Marvin Ukulele
Sonifera Ilha Ukulele


Song lyrics



↑ Back to top | Tablatures and chords are parodies/interpretations of the original songs. You may use it for private study, scholarship, research or language learning purposes only
© 2014 AZChords.com Contact us | Privacy policy | DMCA | Add/correct tabs | Request tabs | Top 50 tabs