» » »

Written In The Stars Tabs (ver.2)

Artists:  A B C D E F G H I J K L M N O P Q R S T U V W X Y Z # 

Written In The Stars Tabs (ver.2)

Tinie Tempah
Rating:
4/5 (5 votes)

Tabs too difficult? Try these video lessons and learn fast.
                -----------------------------------------------------------------------------
Written in the Stars - Tinie Tempah & Eric Turner
-----------------------------------------------------------------------------
Tuning:Standard

This is Eric Turner's part taken from Later with Jools. I've tried to be as
faithful to the song as possible . . . but I'm sure it isn't perfect.

     oh oh oh-oh x 4 - Oh  written in  the stars - A  million miles away
e|---------------------12\-12-10---10--12--13~~----13-13-12---10-----------|
B|---3--3--3--1-----------------------------------------------------13-13--|
G|------------0------------------------------------------------------------|
D|-------------------------------------------------------------------------|
A|-------------------------------------------------------------------------|
E|-------------------------------------------------------------------------|

    A   message to  the main  Oh  seasons come and go - but   I  will never
e|------12----------10--10~~--12\-12-10---10---12--13---13/17-17-15---15-13|
B|--13------13--13---------------------------------------------------------|
G|-------------------------------------------------------------------------|
D|-------------------------------------------------------------------------|
A|-------------------------------------------------------------------------|
E|-------------------------------------------------------------------------|

    change - I'm on  my  way . . . .
e|--12~~~~---12--12--13--15/19b20br17-15-15h17~~---------------------------|
B|-------------------------------------------------------------------------|
G|-------------------------------------------------------------------------|
D|-------------------------------------------------------------------------|
A|-------------------------------------------------------------------------|
E|-------------------------------------------------------------------------|

The last few bars aren't strictly correct, but just sound right in my humble
opinion.

I played it on a GS Grad 60, middle switch. Mid tones/vol push/pulls in
and through a podxt with stock Eruption+full verb.

Enjoy and feel free to correct & improve!


************************************

| /   slide up
| \   slide down
| h   hammer-on
| p   pull-off
| ~   vibrato
| +   harmonic
| x   Mute note
| b   Bend
| pb  Pre-bend
| br  Bend release
| pbr Pre-bend release
| brb Bend release bend

************************************
            
Tabs too difficult? Try these video lessons and learn fast.


comments powered by Disqus
↑ Back to top | Tablatures and chords are parodies/interpretations of the original songs. You may use it for private study, scholarship, research or language learning purposes only