» » »

Tina Turner, Typical Male Tabs (ver.1)

Artists:  A B C D E F G H I J K L M N O P Q R S T U V W X Y Z # 

Typical Male Tabs (ver.1)

Tina Turner Tabs
 Rating:
4/5 (4 votes)
Typical Male lessons Tabs too difficult? Try these video lessons and learn fast
                Main theme/verse
E|-----------------|
B|-----------------|
G|-----------------|
D|-6-6-6-6---------|
A|---------6---6---|
E|-----------7---4-|

End of verses
E|-------|
B|-------|
G|-------|
D|-2--5--|
A|-2--5--|
e|-0--3--|

(0:47) Pre Chorus
E|--------|
B|--------|
G|-9-6----|
D|-9-6--4-|
A|-7-4--4-|
E|------2-|

Chorus    (play last chord when 'on a typical male' is sung)
E|---------------------|
B|---------------------|
G|---4-----------------|
D|-2-4-4--7-7-7-7-7-7--|
A|-2-2-4--7-7-7-7-7-7--|
E|-0---2--5-5-5-5-5-5--|

Solo (2:32)
Sax         Guitar(lead)      Sax   
E|-21b--------------------------------------------------------------|
B|-------------------------------12-14-12----12-14-12--15v-14-12----|
G|---------------------11/13--13----------13---------------------13-|
D|-----9------------------------------------------------------------|
A|-------11-9-9-9-9-9-----------------------------------------------|
E|------------------------------------------------------------------|

E|-------------14-12----------19--|
B|-------12----------15-12h14-----|
G|-11-13----13--------------------|
D|--------------------------------|
A|--------------------------------|
E|--------------------------------|

Interlude (2:47)
E|-----------------------4-------|
B|----------7--------------------|
G|--------8------------4-------5-|
D|-9----9---------6-6-------4--5-|
A|-9--------------6---------4--3-|
E|-7-7------------4---------2----|

(3:11)
E|---------|
B|---------|
G|---------| Play just as your about
D|-5-7-----| to gointo the last chorus
A|-5-7-----|
E|-3-5-6-8-|

Key change chorus   (play last chord when 'on a typical male' is sung)          
E|-----------|
B|-----------|
G|---5-------|
D|-3-5-5--8--|
A|-3-3-5--8--| repeat
E|-1---3--6--|

Horn keyboard effect (playing durring final chorus chords)
E|--------------------------------------------|
B|--------------------------------------------|
G|-14-12--------------14-12-------------12----|
D|-------15-12----12--------15-12----15----15-| repeat
A|-------------15-----------------15----------|
E|--------------------------------------------|
            
Submit corrections

comments powered by Disqus
↑ Back to top | Tina Turner Tabs for Typical Male. Lyrics for acoustic guitar and electric guitar. Tablatures and chords are parodies/interpretations of the original songs. You may use it for private study, scholarship, research or language learning purposes only