» » »

The Best Bass tabs (ver.1)

Artists:  A B C D E F G H I J K L M N O P Q R S T U V W X Y Z # 

The Best Bass tabs (ver.1)

Tina Turner
Rating:
0/5 (0 votes)

Hard to play? Try these video lessons and learn fast.
                Tina Turner – The Best 4:10


G|----------------|----------------|----------------|----------------|
D|----------------|----------------|----------------|----------------|
A|----------------|----------------|----------------|----------------|
E|1-1-1-1-1-1-1-1-|1-1-1-1-1-1-1-1-|1-1-1-1-1-1-1-1-|1-1-1-1-1-1-1-1-|

G|----------------|----------------|----------------|----------------|
D|----------------|----------------|----------------|----------------|
A|----------------|----------------|----------------|----------------|
E|1-1-1-1-1-1-1-1-|1-1-1-1-1-1-1-1-|1-1-1-1-1-1-1-1-|1-1-1-1-1-1-1-1-|

G|----------------|----------------|----------------|----------------|
D|----------------|----------------|----------------|----------------|
A|----------------|----------------|----------------|----------------|
E|1-1-1-1-1-1-1-1-|1-1-1-1-1-1-1-1-|1-1-1-1-1-1-1-1-|1-1-1-1-1-1-1-1-|

G|----------------|----------------|----------------|----------------|
D|0-0-0-0-0-0-0-0-|0-0-0-0-0-0-0-0-|----------------|----------------|
A|----------------|----------------|1-1-1-1-1-1-1-1-|1-1-1-1---------|
E|----------------|----------------|----------------|----------------|

G|----------------|----------------|----------------|----------------|
D|----------------|----------------|----------------|----------------|
A|----------------|----------------|----------------|----------------|
E|1-1-1-1-1-1-1-1-|1-1-1-1-1-1-1-1-|1-1-1-1-1-1-1-1-|1-1-1-1-1-1-1-1-|

G|----------------|----------------|----------------|----------------|
D|----------------|----------------|----------------|----------------|
A|----------------|----------------|----------------|--------------3-|
E|1-1-1-1-1-1-1-1-|1-1-1-1-1-1-1-1-|1-1-1-1-1-1-1-1-|1-1-1-1-1-1-1---|

G|----------------|----------------|----------------|----------------|
D|0-0-0-0-0-0-0-0-|0-0-0-0-0-0-0-0-|----------------|----------------|
A|----------------|----------------|1-1-1-1-1-1-1-1-|1---------------|
E|----------------|----------------|----------------|----------------|

G|----------------|----------------|----------------|----------------|
D|----------------|----------------|----------------|----------------|
A|----------------|----------------|----------------|------------0-3-|
E|1-1-1-1-1-1-1-1-|1-1-1-1-1-1-1-1-|1-1-1-1-1-1-1-1-|1-1-1-1-1-1-----|

G|----------------|----------------|----------------|----------------|
D|0-0-0-0-0-0-0-0-|0-0-0-0-0-0-0-0-|----------------|------------0-3-|
A|----------------|----------------|3-3-3-3-3-3-3-3-|3-3-3-3-3-3-----|
E|----------------|----------------|----------------|----------------|

G|----------------|----------------|----------------|----------------|
D|----------------|----------------|----------------|----------------|
A|----------------|----------------|----------------|------------0-3-|
E|1-1-1-1-1-1-1-1-|1-1-1-1-1-1-1-1-|1-1-1-1-1-1-1-1-|1-1-1-1-1-1-----|

G|----------------|----------------|----------------|----------------|
D|0-0-0-0-0-0-0-0-|0-0-0-0-0-0-0-0-|----------------|--------0-3-0---|
A|----------------|----------------|3-3-3-3-3-3-3-3-|3-3-3-3-------3-|
E|----------------|----------------|----------------|----------------|

G|----------------|----------------|----------------|----------------|
D|----------------|----------------|----------------|----------------|
A|----------------|----------------|----------------|----------------|
E|1-1-1-1-1-1-1-1-|1-1-1-1-1-1-1-1-|1-1-1-1-1-1-1-1-|1-1-1-1-1-1-1-1-|

G|----------------|----------------|----------------|----------------|
D|----------------|----------------|----------------|----------------|
A|----------------|----------------|----------------|--------------3-|
E|1-1-1-1-1-1-1-1-|1-1-1-1-1-1-1-1-|1-1-1-1-1-1-1-1-|1-1-1-1-1-1-1---|

G|----------------|----------------|----------------|----------------|
D|0-0-0-0-0-0-0-0-|0-0-0-0-0-0-0-0-|----------------|----------------|
A|----------------|----------------|3-3-3-3-3-3-3-3-|3-3-3-----------|
E|----------------|----------------|----------------|----------------|

G|----------------|----------------|----------------|----------------|
D|----------------|----------------|----------------|----------------|
A|----------------|----------------|----------------|------------0-3-|
E|1-1-1-1-1-1-1-1-|1-1-1-1-1-1-1-1-|1-1-1-1-1-1-1-1-|1-1-1-1-1-1-----|

G|----------------|----------------|----------------|----------------|
D|0-0-0-0-0-0-0-0-|0-0-0-0-0-0-0-0-|----------------|--------0-3-0---|
A|----------------|----------------|3-3-3-3-3-3-3-3-|3-3-3-3-------3-|
E|----------------|----------------|----------------|----------------|

G|----------------|----------------|----------------|----------------|
D|----------------|----------------|----------------|----------------|
A|----------------|----------------|----------------|------------0-3-|
E|1-1-1-1-1-1-1-1-|1-1-1-1-1-1-1-1-|1-1-1-1-1-1-1-1-|1-1-1-1-111-----|

G|----------------|----------------|----------------|----------------|
D|0-0-0-0-0-0-0-0-|0-0-0-0-0-0-0-0-|----------------|----------------|
A|----------------|----------------|3-3-3-3-3-3-3-3-|3-3-3-3-3-3----3|
E|----------------|----------------|----------------|------------3---|

G|----------------|----------------|----------------|----------------|
D|----------------|----------------|0-0-0-0-0-0-0-0-|0-0-0-0-0-0-0---|
A|1-1-1-1-1-1-1-1-|1-1-1-1-1-1-1-3-|----------------|--------------3-|
E|----------------|----------------|----------------|----------------|

G|----------------|----------------|----------------|----------------|
D|----------------|----------------|----------------|------0---0-0-0-|
A|1-1-1-1-1-1-1-1-|1-1-1-1-1-1-1-1-|3-3-3-3-3-3-3-3-|3-3-3-----------|
E|----------------|----------------|----------------|----------------|

G|----------------|----------------|----------------|----------------|
D|----------------|----------------|----------------|----------0-2-0-|
A|----------------|----------------|----------------|--------2-------|
E|3-3-3-3-3-3-3-3-|3-3-3-3-3-3-3-3-|3-3-3-3-3-3-3-3-|3-3-3-3---------|

G|----------------|----------------|----------------|----------------|
D|----------------|----------------|0-0-0-0-0-0-0-0-|0-0-0-0-0-0-0-0-|
A|----------------|----------------|----------------|----------------|
E|0-0-0-0-0-0-0-0-|0-0-0-0-0-0-0-0-|----------------|----------------|

G|----------------|----------------|----------------|----------------|
D|0-0-0-0-0-0-0---|----------------|----------------|----------------|
A|--------------2-|----------------|----------------|----------------|
E|----------------|3-3-3-3-3-3-3-3-|3-3-3-3-3-3-3-3-|3-3-3-3-3-3-3-3-|

G|----------------|----------------|----------------|----------------|
D|--------------0-|-2-2-2-2-2-2-2-2|-2-2-2-2-2-2-2-2|0-0-0-0-0-0-0-0-|
A|------------2---|----------------|----------------|----------------|
E|3-3-3-3-3-3-----|----------------|----------------|----------------|

G|----------------|----------------|----------------|----------------|
D|0-0-0-0-0-0-0-0-|----------------|----------------|----------------|
A|----------------|----------------|----------------|----------------|
E|----------------|3-3-3-3-3-3-3-3-|3-3-3-3-3-3-3-3-|3-3-3-3-3-3-3-3-|

G|----------------|----------------|----------------|----------------|
D|--------------0-|----------------|--------------2-|0-0-0-0-0-0-0-0-|
A|------------2---|----------------|----------------|----------------|
E|3-3-3-3-3-3-----|0-0-0-0-0-0-0-0-|0-0-0-0-0-0-0---|----------------|

G|----------------|----------------|----------------|----------------|
D|0-0-0-0-0-0-0-0-|----------------|----------------|----------------|
A|----------------|----------------|----------------|----------------|
E|----------------|-3--------------|----------------|----------------|

G|----------------|----------------|----------------|----------------|
D|----------------|--THE END    ---|----------------|----------------|
A|----------------|----------------|----------------|----------------|
E|----------------|----------------|----------------|----------------|
            
Hard to play? Try these video lessons and learn fast. | Correct




comments powered by Disqus
↑ Back to top | Tablatures and chords are parodies/interpretations of the original songs. You may use it for private study, scholarship, research or language learning purposes only