» » »

Tina Turner, Simply The Best Bass tabs (ver.1)

Artists:  A B C D E F G H I J K L M N O P Q R S T U V W X Y Z # 

Simply The Best Bass tabs (ver.1)

Tina Turner Tabs
 Rating:
4/5 (4 votes)
Simply The Best lessons Tabs too difficult? Try these video lessons and learn fast
1
                STANDARD TUNE


S - HARD SLAP
s - SLAP
P - POP
X - MUTE SLAP

INTRO

  1  + 2 + 3 + 4 +  
G|----------------|----------------|----------------|----------------|
D|----------------|----------------|----------------|----------------|
A|----------------|----------------|----------------|----------------|
E|S1xxxxxS1xxxxxxx|1xxxxx1xxxxxxxxx|1xxxxx1xxxxxxxxx|1xxxxx1xxxxxxxxx|

VERSE

  1  + 2 + 3 + 4 +  
G|----------------|----------------|----------------|----------------|
D|----------------|----------------|----------------|----------------|
A|----------------|----------------|----------------|----------------|
E|S1xxxxxS1xxxxxxx|S1xxxxxS1xxxxxxx|S1xxxxxS1xxxxxxx|S1xxxxxS1xxxxxxx|

G|----------------|----------------|----------------|----------------|
D|----------------|----------------|----------------|----------------|
A|----------------|----------------|----------------|----------------|
E|S1xxxxxS1xxxxxxx|S1xxxxxS1xxxxxxx|S1xxxxxS1xxxxxxx|S1xxxxxS1xxxxxxx|

G|----------------|----------------|----------------|----------------|
D|----------------|----------------|----------------|----------------|
A|S5xxxxxS5xxxxxxx|S5xxxxxS5xxxxxxx|S1xxxxxS5xxxxxxx|S1--------------|
E|----------------|----------------|----------------|----------------|

G|----------------|----------------|----------------|----------------|
D|----------------|----------------|----------------|----------------|
A|----------------|----------------|----------------|----------------|
E|S1xxxxxS1xxxxxxx|S1xxxxxS1xxxxxxx|S1xxxxxS1xxxxxxx|S1xxxxxS1xxxxxxx|

G|----------------|----------------|----------------|----------------|
D|----------------|----------------|----------------|----------------|
A|----------------|----------------|----------------|----------------|
E|S1xxxxxS1xxxxxxx|S1xxxxxS1xxxxxxx|S1xxxxxS1xxxxxxx|S1xxxxxS1xxxxxxx|

                                                     1 + 2
G|----------------|----------------|----------------|----------------|
D|----------------|----------------|----------------|----------------|
A|S5xxxxxS5xxxxxxx|S5xxxxxS5xxxxxxx|S1xxxxxS1xxxxxxx|3-3-3-----------|
E|----------------|----------------|----------------|----------------|


CHORUS
  1 + 2 + 3 + 4 +
G|----------------|----------------|----------------|----------------|
D|----------------|----------------|----------------|----------------|
A|----------------|----------------|----------------|----------------|
E|1-1-1-1-1-1-1-1-|1-1-1-1-1-1-1-1-|1-1-1-1-1-1-1-1-|1-1-1-1-1-1-1-1-|

G|----------------|----------------|----------------|----------------|
D|----------------|----------------|----------------|----------------|
A|----------------|----------------|----------------|----------------|
E|5-5-5-5-5-5-5-5-|5-5-5-5-5-5-5-5-|3-3-3-3-3-3-3-3-|3-3-3-3-3-3-3-3-|

G|----------------|----------------|----------------|----------------|
D|----------------|----------------|----------------|----------------|
A|----------------|----------------|----------------|----------------|
E|1-1-1-1-1-1-1-1-|1-1-1-1-1-1-1-1-|1-1-1-1-1-1-1-1-|1-1-1-1-1-1-1-1-|

G|----------------|----------------|----------------|----------------|
D|----------------|----------------|----------------|----------------|
A|----------------|----------------|----------------|----------------|
E|5-5-5-5-5-5-5-5-|5-5-5-5-5-5-5-5-|3-3-3-3-3-3-3-3-|3-3-3-3-3-3-3-3-|

REPEAT VERSE & CHORUS

BRIGDE

G|----------------|-----------P3--p3-|----------------|----------------|
D|----------------|------------------|----------------|----------------|
A|1-1-1-1-1-1-1-1-|1-1-1-1-s1---s1---|5-5-5-5-5-5-5-5-|5-5-5-5-5-5-5-5-|
E|----------------|------------------|----------------|----------------|

G|----------------|----------------|----------------|----------------|
D|----------------|----------------|----------------|----------------|
A|1-1-1-1-1-1-1-1-|1-1-1-1-1-1-1-1-|3-3-3-3-3-3-3-3-|3-3-3-5---------|
E|----------------|----------------|----------------|----------------|

SAXOPHONE SOLO (MODULATE/CHANGE KEY)
G|----------------|----------------|----------------|----------------|
D|----------------|----------------|----------------|----------------|
A|----------------|----------------|----------------|----------------|
E|3-3-3-3-3-3-3-3-|3-3-3-3-3-3-3-3-|3-3-3-3-3-3-3-3-|3-3-3-3-3-3-3-3-|

G|----------------|----------------|----------------|----------------|
D|----------------|----------------|----------------|----------------|
A|----------------|7-7-7-7-7-7-7-7-|5-5-5-5-5-5-5-5-|5-5-5-5-5-5-5-5-|
E|0-0-0-0-0-0-0-0-|----------------|----------------|----------------|

CHORUS
G|----------------|----------------|----------------|----------------|
D|----------------|----------------|----------------|----------------|
A|----------------|----------------|----------------|----------------|
E|3-3-3-3-3-3-3-3-|3-3-3-3-3-3-3-3-|3-3-3-3-3-3-3-3-|3-3-3-3-3-3-3-3-|

G|----------------|----------------|----------------|----------------|
D|----------------|----------------|----------------|----------------|
A|----------------|7-7-7-7-7-7-7-7-|5-5-5-5-5-5-5-5-|5-5-5-5-5-5-5-5-|
E|0-0-0-0-0-0-0-0-|----------------|----------------|----------------|

G|----------------|----------------|----------------|----------------|
D|----------------|----------------|----------------|----------------|
A|----------------|----------------|----------------|----------------|
E|3-3-3-3-3-3-3-3-|3-3-3-3-3-3-3-3-|3-3-3-3-3-3-3-3-|3-3-3-3-3-3-3-3-|

G|----------------|----------------|----------------|----------------|
D|----------------|----------------|----------------|----------------|
A|----------------|7-7-7-7-7-7-7-7-|5-5-5-5-5-5-5-5-|5-5-5-5-5-5-5-5-|
E|0-0-0-0-0-0-0-0-|----------------|----------------|----------------|

G|----------------|----------------|
D|----------------|----------------|
A|----------------|----------------|
E|3---------------|----------------|
            
Submit corrections

comments powered by Disqus
↑ Back to top | Tina Turner Bass for Simply The Best. Lyrics for acoustic guitar and electric guitar. 1 Tablatures and chords are parodies/interpretations of the original songs. You may use it for private study, scholarship, research or language learning purposes only