>
 >
Stream

Stream Guitar Tabs

Tim Reynolds - Stream chords, tabs, tablatures, lyrics

Guitar lessons | Add/correct | Request | Top 50 tabs Artists:  A B C D E F G H I J K L M N O P Q R S T U V W X Y Z 0-9

Stream Guitar Tabs – Tim Reynolds

CD, Sheet music, Poster

Do you like Stream? Share with your friends now
Tabs

Mike D here:  You have to mess around with a lot of the fingerings.
Tim Reynolds never plays it the exact same.  It is always different at each
concert.  And you need a pedal for a lot of this stuff.  Play parts
of it anyway.  Download the song.  Listen to it.
Mike D over and out---

Drop D tuning
I just try to mess around with the D-mixo scale.

An intro...
e----------------------0--------------------0--|
B----------------------5--------------------5--|
G----------------------5------4----5----7---5--|Repeat
D-----2----4----5------0---0h5--0h7--0h9----0--|
A--0h3--0h5--0h7-------0--------------------0--|
D------------------0-0-0------------------0-0--|


Main Riff...
e--------------------------0------------------------0-|
B--------------------------5------------------------5-|
G--------------------------5--4-5-4-2-0-----0-------5-|
D--4-5-4-2-0-----0---------0------------4-2---4-2-0-0-|
A------------3-2---3-2-0---0------------------------0-|
D------------------------0-0------------------------0-|


e--------------------------0--7-8-7----------------------|
B--------------------------5--------10-8-7-5-7---8--8-10-|
G--------------------------5-------------------5--5---7--|
D--4-5-4-2-0-----0---------0-----------------------------|
A------------3-2---3-2-0---0-----------------------------|
D------------------------0-0-----------------------------|


Next Part
e--0-0-0-0---0-0--0-0---0-0-0-0-0-0-0-7--| (Harmonic)
B--7-5-3-5/7-7-7--7-7----3-3---6-6--7-7--|
G--5-3-1-3/5-5-5--5-5--1-----3------5-7--|
D--0-0-0-0---0-0--0-0--------------------|
A--0-0-0-0---0-0--0-0--------------------|
D--0-0-0-0---0-0--0-0--------------------|


Transition Part
e--0-0-0-0---0-0--0-0---0-0-0-0-0-0-0-0-0-0-0-0-0-0-0-0-0-0-0-|
B--7-5-3-5/7-7-7--7-7----3-3---6-6---7-7---7-7---7---7---7-7--|
G--5-3-1-3/5-5-5--5-5--1-----3-----5-----5-----5---5---5------|
D--0-0-0-0---0-0--0-0-----------------------------------------|
A--0-0-0-0---0-0--0-0-----------------------------------------|
D--0-0-0-0---0-0--0-0-----------------------------------------|


"Cocain Fury" Part
e----------------------------------|
B----------------------------------|Alternate Between This
G--7-------14-12-11-7------5-3-2-3-|and the end of the
D--0-------0--0--0--0------0-0-0-0-|"Transition Part" above.
A--5-------12-10-9--5------3-1-0-1-|
D--0--|||--0--0--0--0-|||----------|


Big Improv Section
e--------------------------------|
B--------------------------------| In this part, just make
G--5-7-9--4-5-4---4---5/7-0------| stuff up using the D
D---------------5---0------0-5/7-| mixolydian (Bass Minor)
A--3-5-7-------------------------| tabbed next.
D--0-0-0-------------------------|


e------------------------------------7-8-10-12-14-15-|
B------------------------------7-8-10----------------|
G-----------------------4-5-7-9----------------------|
D------------------4-5-7-----------------------------|
A---------0-2-3-5-7----------------------------------|
D--0-2-3-5-------------------------------------------|


Here is one of the awesomely fast riffs that Tim throws in on L@LC.
e--------------------------|
B----------------------8-6-|
G----------------------7-5-|Repeat
D----------------------0-0-|
A-------3p0-----5p0----0-0-|
D--0h3h5---0h5h7---5-0-----|


e-------------0-----------0-----------0-0/0-0-|
B-------------6-----------6-----------6-6/8-8-|
G-------------5-----------5-----------5-5/7-7-|Repeat
D-------------0-----------0-----------0-0/0-0-|
A-------3p0----------3p0---------3p0----------|
D--0h3h5---0----0h3h5---0---0h3h5---0---------|

*******************************************************************

Zepplin Melody(Stream)
By Tim Reynolds
Trans. by Mark Schmitz

Drop D tuning
played with 12-string(trans. w/6-string)


e-------------------------------------------------------------------|
B-------------------------------------------------------------------|
G--2-2-2---2-2-2---3-3-3---3-3-3---5-5-5---5-5-5---7-7-7---7-7-7----|
D--0-0-0---0-0-0---0-0-0---0-0-0---0-0-0---0-0-0---0-0-0---0-0-0----|
A--5-5-5---5-5-5---5-5-5---5-5-5---5-5-5---5-5-5---5-5-5---5-5-5----|
D--0-0-0-0-0-0-0-0-0-0-0-0-0-0-0-0-0-0-0-0-0-0-0-0-0-0-0-0-0-0-0----|


e------------------------------------------------------------|
B---13---12---11---10---9----8----6----5----4----3-----------|
G---12---10---9----8----7----7----5----3----3----2-----------|
D------------------------------------------------------------|
A---------------------------------------------------0-3-2-0--|
D-0----0----0----0----0----0----0----0----0----0----0-3-2-0--|
*Repeat*

e-------------------------------------------------------------------|
B-------------------------------------------------------------------|
G--2-2-2---2-2-2---3-3-3---3-3-3---5-5-5---5-5-5---7-7-7---7-7-7----|
D--0-0-0---0-0-0---0-0-0---0-0-0---0-0-0---0-0-0---0-0-0---0-0-0----|
A--5-5-5---5-5-5---5-5-5---5-5-5---5-5-5---5-5-5---5-5-5---5-5-5----|
D--0-0-0-0-0-0-0-0-0-0-0-0-0-0-0-0-0-0-0-0-0-0-0-0-0-0-0-0-0-0-0----|


e---4-----4--------------4------4---4---4---|
B-----5-----5p4------------5----------------|
G-------6-------4---4--------6----4---4-----|
D-----------------4-------------------------|
A-4--------------------4--------------------|
D-------------------------------------------|


e---4-----4--------------4------4---4---4---|
B-----5-----5p4------------5----------------|
G-------6-------4---4--------6----4---4-----|
D-----------------4-------------------------|
A-4--------------------4--------------------|
D-------------------------------------------|


e--4-----4----------------------------------|
B----5-----5p4------------------------------|
G------6-------4---4---------------------8--|
D----------------4-------------9-9-11-11----|
A---------------------4--11-11--------------|
D-------------------------------------------|


e--4-----4------------------------------------|
B----5-----5p4--------------------------------|
G------6-------4---4--------------------------|
D----------------4-------------9-9-9p11-------|
A---------------------4--11-11----------9-11--|
D---------------------------------------------|


e--4-----4----------------------------------|
B----5-----5p4------------------------------|
G------6-------4---4---------------------8--|
D----------------4-------------9-9-11-11----|
A---------------------4--11-11--------------|
D-------------------------------------------|


e--4-----4------------------------------------|
B----5-----5p4--------------------------------|
G------6-------4---4--------------------------|
D----------------4-------------9-9-9p11-------|
A---------------------4--11-11----------9-11--|
D---------------------------------------------|


e--4-----4------------------------------------|
B----5-----5p4--------------------------------|
G------6-------4---4---------------------8-9--|
D----------------4-------------9-9-11-11------|
A---------------------4--11-11----------------|
D---------------------------------------------|

Now it goes into something tricky, it was too tough to tab

e---------------------------------------------------------------|
B---------------------------------------------------------------|
G--5/7-7-7-7--5/7-7-7-7--5/7-7-7--------------------------------|
D--x-x-x-x-x--x-x-x-x-x--x-x-x-x-5--3/5-5-5-5-3------------3-0--|
A--3/5-5-5-5--3/5-5-5-5--3/5-5-5-5--3/5-5-5-5-3--0-----3-0------|
D--x-x-x-x-x--x-x-x-x-x--x-x-x-x-5--3/5-5-5-5-3--0-3-5----------|


e---------------------------------------------------------------|
B---------------------------------------------------------------|
G--5/7-7-7-7--5/7-7-7-7--5/7-7-7--------------------------------|
D--x-x-x-x-x--x-x-x-x-x--x-x-x-x-5--3/5-5-5-5-3------------3-0--|
A--3/5-5-5-5--3/5-5-5-5--3/5-5-5-5--3/5-5-5-5-3--0-----3-0------|
D--x-x-x-x-x--x-x-x-x-x--x-x-x-x-5--3/5-5-5-5-3--0-3-5----------|


e-------------------------------------------------------------|
B---13---12---11---10---9----8----6----5----4----3------------|
G---12---10---9----8----7----7----5----3----3----2------------|
D-------------------------------------------------------------|
A---------------------------------------------------0-3-2-0-0-|
D-0----0----0----0----0----0----0----0----0----0----0-3-2-0---|
*Repeat*

and then back into Stream.
Oh yes!!!

Mike D did this.  Hope you enjoy it as much as I do.





Comments


Popular Tim Reynolds tabs & chords
Betrayal Tabs
Dancing Nancies Tabs
Loose Interpretations Tabs
Satellite Tabs
Stream Live Tabs
You Are My Sanity Tabs


Song lyrics



↑ Back to top | Tablatures and chords are parodies/interpretations of the original songs. You may use it for private study, scholarship, research or language learning purposes only
© 2014 AZChords.com Contact us | Privacy policy | DMCA | Add/correct tabs | Request tabs | Top 50 tabs