» » »

Satellite Tabs (ver.1)

Artists:  A B C D E F G H I J K L M N O P Q R S T U V W X Y Z # 

Satellite Tabs (ver.1)

Tim Reynolds
Rating:
0/5 (0 votes)

Hard to play? Try these video lessons and learn fast.
                These are some of Tim's fills that he does, so I marked it as solo. For all Dave 
and Tim Reynolds tabs head over to DMBtabs.com, they have all the songs.

He plays some of the riffs in different orders at different concerts, so I'll just lay 
out separately.


Intro:

E:-6-4-3-1-3--|
B:-4-6-4-2-4--|
G:---6-5-3-5--|
D:-6----------| X3
A:------------|
E:------------|

E:-6-4-3------|
B:-4-6-4------|
G:---6-5------|
D:-6----------|
A:------------|
E:------------|

Second riff

E:-------------8-----------------------------|
B:--9-11-9---9--9-9-11----9-11-9---9-11-9----|
G:-8-------8-----8------8--------8--------8--|
D:-------------------------------------------|
A:-------------------------------------------|
E:-------------------------------------------|


Chorus

"Winter's cold"

E:------------------------|
B:------------------------|
G:---6/8-8-88---88---88---|
D:---6/8-8-6-6--6-6--8-8--|
A:---------4--4------6--6-|
E:-4------------6--6------|

Chorus (Second)

"Rest high above..."

E:-8--3-6-8---|
B:-9--4-6-8---|
G:-8--5-6-8---|
D:-10-5-6-8---|
A:----3-4-6---|
E:----3-4-6---|

or

E:-13--8--9-11-|
B:-13--8--9-11-|
G:-13--8-10-12-|
D:-13-10-11-13-|
A:-11-10-11-13-|
E:-11--8--9-11-|
            
Hard to play? Try these video lessons and learn fast. | Correct




comments powered by Disqus
↑ Back to top | Tablatures and chords are parodies/interpretations of the original songs. You may use it for private study, scholarship, research or language learning purposes only