>
 >
Betrayal

Betrayal Guitar Tabs

Tim Reynolds - Betrayal chords, tabs, tablatures, lyrics

Guitar lessons | Add/correct | Request | Top 50 tabs Artists:  A B C D E F G H I J K L M N O P Q R S T U V W X Y Z 0-9

Betrayal Guitar Tabs – Tim Reynolds

CD, Sheet music, Poster

Do you like Betrayal? Share with your friends now
Tabs


e:|-----------------------------------------------------------------|
b:|--------------------3------3-------------------------------3-----|
G:|----5\4p2p0---0---0------2---2-----2-----------------------2-----|
D:|------------3---2----2-0---------0----------3----3/5-5-3-0-0--X2-|
A:|-------------------------------3-----3----3------3/5-5-3-0-0-----|
D:|----------------------------------------3-----3--3/5-5-3-0-0-----|

e:|---------------------------------------------------------------------------------------------------|
b:|--------------------3------3----------------------------3----------------------------------------3-|
G:|----5\4p2p0---0---0------2---2-----2--------------------2----------------------------------------2-|
D:|------------3---2----2-0---------0-----------3------2---0------3-----2-------5-x------3------2---0-|
A:|-------------------------------3-----3-----3------2-----0----3-----2-------5---x----3------2-----0-|
D:|-----------------------------------------3------2-----0-0--3-----2-----3/5-----x--3------2-----0-0-|

e:|-----------------------------------------------------------------|
b:|--------------------3------3-------------------------------3-----|
G:|--4/5\4p2p0---0---0------2---2-----2-----------------------2-----|
D:|------------3---2----2-0---------0----------3----3/5-5-3-0-0-X2--|
A:|-------------------------------3-----3----3------3/5-5-3-0-0-----|
D:|----------------------------------------3-----3--3/5-5-3-0-0-----|

e:|---------------------------------------------------------------------------------------------------|
b:|--------------------3------3----------------------------3----------------------------------------3-|
G:|-----4bp2p0---0---0------2---2-----2--------------------2----------------------------------------2-|
D:|------------3---2----2-0---------0-----------3------2---0------3-----2-------5-x------3------2---0-|
A:|-------------------------------3-----3-----3------2-----0----3-----2-------5---x----3------2-----0-|
D:|-----------------------------------------3------2-----0-0--3-----2-----3/5-----x--3------2-----0-0-|

e:|-----------------------------------------------------------------|
b:|-----------------------------------------------------------------|
G:|-----------------------------------------------------------------|
D:|----------------------------------5------------------X2----------|
A:|--3--2~-----------0---3--2~-------5--0---------------------------|
D:|---------0-3-0-2--0---------0-3-0-5--0---------------------------|

e:|------------------------------------------------------------------------------------------------|
b:|----------------------------------------------------------------------------------------------3-|
G:|----------------------------------------------------------------------------------------------2-|
D:|-----------------------------------------------------------------------------------5----0--3--0-|
A:|-3---2-2-2-------------3-3-2-2-2-------------3-3-2-2-2-------------3-3-2-2-2-------5----0--3--0-|
D:|-----------3-3-2-2-0-0-----------3-3-5-5-0-0-----------3-3-2-2-0-0-----------3-3-0-5----0--3--0-|

e:|-----------------------------------------------------------------|
b:|-----------------------------------------------------------------|
G:|-----------------------------------------------------------------|
D:|-------------------------------5--3^--------(REPEAT 4X)----------|
A:|----------5--3~-5---------5--3-------5--3^-----------------------|
D:|--0-5-0-3---------0-5-0-3----------------------------------------|
(...faster...)
e:|-----------------------------------------------------------------|
b:|-----------------------------------------------------------------|
G:|-----------------------------------------------------------------|
D:|--------------------------------------------------5-3------------|
A:|----------5-3---------7-5---------5-3---------5-3----------------|
D:|--0-5-0-3-----0-5-0-3-----0-5-0-3-----0-5-0-3--------------------|

The variation of the 2nd post-verse:
e:|-----------------------------------------------------------|
b:|-----------------------------------------------------------|
G:|-----------------------------------------------------------|
D:|------0-0-0-0-0-0-0-0-0-0---0-0-0-0-0-0-0-0---0-0-0-0------|
A:|-3---2-2-2-----------------3-3-2-2-2-----------------------|
D:|-----------3-3-3-2-2-0-0-------------3-3-0-3/5-5-0-0-------|

And the whole Flamenco section:
e:|-5-6-5---------------------------------5-6-8-6-5--|
b:|-------8-6-5-8-6-5---------------5-6-8------------|
G:|-------------------7-5-------5-7------------------|
D:|-----------------------7-5-7----------------------|
A:|--------------------------------------------------|
D:|--------------------------------------------------|

e:|-0--0-0---0-1--1-1--------------------------|
b:|-1--1-1-x-1-1--1-1-x-0-------------5--5-----|
G:|-2--2-2-x-0-2--2-2-x-0--3--3-3-x-0-5--5-----|
D:|-2--2-2-x-0-3--3-3-x-0--5--5-5-x-0-5--5-----|
A:|-0--0-0----------------------------3--3-----|
D:|------------------------5--5-5--------------|

e:|-5-6-5---------------------------------5-6-8-6-5--|
b:|-------8-6-5-8-6-5---------------5-6-8------------|
G:|-------------------7-5-------5-7------------------|
D:|-----------------------7-5-7----------------------|
A:|--------------------------------------------------|
D:|--------------------------------------------------|

e:|-0--0-0---0-1--1-1--------------------------|
b:|-1--1-1-x-1-1--1-1-x-0-------------5--5-----|
G:|-2--2-2-x-0-2--2-2-x-0--3--3-3-x-0-5--5-----|
D:|-2--2-2-x-0-3--3-3-x-0--5--5-5-x-0-5--5-----|
A:|-0--0-0----------------------------3--3-----|
D:|------------------------5--5-5--------------|

e:|-10-12-10-------------------------------------------------10-12-13-12-10-|
b:|----------13-11-10-13-11-10----------------------10-11-13----------------|
G:|----------------------------12-10----------10-12-------------------------|
D:|----------------------------------12-10-12-------------------------------|
A:|-------------------------------------------------------------------------|
D:|-------------------------------------------------------------------------|

e:|-0--0-0---0-1--1-1--------------------------------------------------1--1-1---1-1-|
b:|-1--1-1-x-1-1--1-1-x-0-------------5--5-----1--1-1-----3--3-3-------3--3-3---3-3-|
G:|-2--2-2-x-0-2--2-2-x-0--3--3-3-x-0-5--5-x-0-2--2-2-x-0-2--2-2-x-0---2--2-2---2-2-|
D:|-2--2-2-x-0-3--3-3-x-0--5--5-5-x-0-5--5-x-0-3--3-3-x-0-2--2-2-x-0---0--0-0---0-0-|
A:|-0--0-0----------------------------3--3-----------------------------0--------0---|
D:|------------------------5--5-5--------------3--3-3-----2--2-2-----0-0------0-0---|
x2
e:|-5-6-5---------------------------------5-6-8-6-5--|
b:|-------8-6-5-8-6-5---------------5-6-8------------|
G:|-------------------7-5-------5-7------------------|
D:|-----------------------7-5-7----------------------|
A:|--------------------------------------------------|
D:|--------------------------------------------------|
x3
e:|-10-12-10-------------------------------------------------10-12-13+-10-12+-8-10-|
b:|----------13-11-10-13-11-10----------------------10-11-13-----------------------|
G:|----------------------------12-10----------10-12--------------------------------|
D:|----------------------------------12-10-12--------------------------------------|
A:|--------------------------------------------------------------------------------|
D:|--------------------------------------------------------------------------------|

e:|-0--0-0---0-1--1-1--------------------------------------------------1--1-1---1-1-|
b:|-1--1-1-x-1-1--1-1-x-0-------------5--5-----1--1-1-----3--3-3-------3--3-3---3-3-|
G:|-2--2-2-x-0-2--2-2-x-0--3--3-3-x-0-5--5-x-0-2--2-2-x-0-2--2-2-x-0---2--2-2---2-2-|
D:|-2--2-2-x-0-3--3-3-x-0--5--5-5-x-0-5--5-x-0-3--3-3-x-0-2--2-2-x-0---0--0-0---0-0-|
A:|-0--0-0----------------------------3--3-----------------------------0--------0---|
D:|------------------------5--5-5--------------3--3-3-----2--2-2-----0-0------0-0---|
Repeat with fast strum.





Comments


Popular Tim Reynolds tabs & chords
Dancing Nancies Tabs
Loose Interpretations Tabs
Satellite Tabs
Stream Tabs
Stream Live Tabs
You Are My Sanity Tabs


Song lyrics



↑ Back to top | Tablatures and chords are parodies/interpretations of the original songs. You may use it for private study, scholarship, research or language learning purposes only
© 2014 AZChords.com Contact us | Privacy policy | DMCA | Add/correct tabs | Request tabs | Top 50 tabs