» » »

Selfish Ways Tabs (ver.1)

Artists:  A B C D E F G H I J K L M N O P Q R S T U V W X Y Z # 

Selfish Ways Tabs (ver.1)

Timmy Curran
Rating:
4/5 (2 votes)

Hard to play? Try these video lessons and learn fast.
                verse/bridge: D, Bm G, A, D
chorus: D, Bm, G, A, Bm,
        G, A, D,
        G, A, D

verse1:
D                  Bm
Break your selfish ways
         G        A            D
I can't loose you before your days
     D                 Bm
Your momma she's been strong
         G     A     D
standing by you all along
D
I will wait the test of time
    Bm
no telling when you'll be fine
        G            A              D
Oh I'm praying I'm standing in that line

chorus:
       D                    Bm
Where we'll be singing out loud
    G         A      Bm   G
My son you finally found
      A   D   G
Your own way     (rundown*)
         A          D
Finally found your way

rundown*:
---------------------------------|
--7---5--------------------------|
-9---7----7---7------------------|
---------9---7---5---------------|
---------------------------------|
---------------------------------|

solo:
----------------------------------------------------------------------|
----------------------------------------------5h7-7-7-7-7--5-5--7b-7r-|
--6h7p6----6h7p6----6h7p6---------7---6h7-9---------------------------|
--------7--------7--------7---7h9-------------------------------------|
----------------------------------------------------------------------|
----------------------------------------------------------------------|

verse2:
wake your sleeping soul
may it guide you, guide you home
You take the devil for a ride
and by the end you know I'm right
You'll be wishing you
never picked the fight

But I will wait the test of time
no telling when you'll be fine
Oh I'm praying I'm standing in that line

Where we'll be singing out loud
My son you finally found
Your way
Finally found your way

And we'll be singing out loud
My son you finally found
Your way
Finally found your way
            
Hard to play? Try these video lessons and learn fast. | Correct




comments powered by Disqus
↑ Back to top | Tablatures and chords are parodies/interpretations of the original songs. You may use it for private study, scholarship, research or language learning purposes only