>
 >
Blue Eyes

Blue Eyes Chords

Timmy Curran - Blue Eyes chords, tabs, tablatures, lyrics

Guitar lessons | Add/correct | Request | Top 50 tabs Artists:  A B C D E F G H I J K L M N O P Q R S T U V W X Y Z 0-9

Blue Eyes Chords – Timmy Curran

CD, Sheet music, Poster

Do you like Blue Eyes? Share with your friends now
ChordsChords v2Chords v3TabsUkulele

Like My Band On Facebook! :) 


Don't Forget Twitter! :)


Intro:
   |---Lick--(A)---|       F#m                D             E
e|-----------------|-------2-2-2-----|---------2-2-2-----|---7-7-7---------|
B|-----------5-5-5-|-------2-2-2-----|---------3-3-3-----|---9-9-9---------|
G|-----2p0---6-6-6-|-------2-2-2-----|-----2---2-2-2-----|---9-9-9---------|
D|-2h4-----7-7-7-7-|-4-2---4-4-4-----|-2h4---0-----------|---9-9-9---------|
A|-----------------|-------4-4-4-----|-------------------|-7-7-7-7---------|
E|-----------------|-----2-2-2-2-----|-------------------|-----------------|

Verse 1:
   A
What a great surprise                         
             F#m
It's been some time                           
              D
How have you been                                                        
             E
Can you come on in                            
                A
Let me take your coat                         
                F#m
To cover up the note                          
             D
I wrote yesterday                             
                E
Telling you the way                           
Bm    E           A
How I am without you

Chorus:                             
Bm                 E          A     G     D
Cause I'd be lost forever if you slipped away 
Bm                   E       A   G   D
Blue eyes you're the reason for my change     
Bm                   E               A
Blue eyes you're the reason for my change     
     
Bridge:
   |---Lick--(A)---|       F#m                D             E
e|-----------------|-------2-2-2-----|---------2-2-2-----|---7-7-7---------|
B|-----------5-5-5-|-------2-2-2-----|---------3-3-3-----|---9-9-9---------|
G|-----2p0---6-6-6-|-------2-2-2-----|-----2---2-2-2-----|---9-9-9---------|
D|-2h4-----7-7-7-7-|-4-2---4-4-4-----|-2h4---0-----------|---9-9-9---------|
A|-----------------|-------4-4-4-----|-------------------|-7-7-7-7---------|
E|-----------------|-----2-2-2-2-----|-------------------|-----------------|
           
Verse 2:                                
  (Lick)  A 
I'm doin alright  
                F#m                                              
Was only driving by  
               D         
Thought id say hello  
                   E                 
I was hoping you were home   
                   A                 
Since you've never called  
                    F#m              
Have you thought at all  
                 D    
Is there anybody new
 E                                      A
Cause don't know what I'd do without you

Chorus:
Bm                 E          A     G     D
 Cause I'd be lost forever if you slipped away 
 Bm                   E       A   G   D
 Blue eyes you're the reason for my change     
 Bm                   E               A
 Blue eyes you're the reason for my change    

Bridge:
   |---Lick--(A)---|       F#m                D             E
e|-----------------|-------2-2-2-----|---------2-2-2-----|---7-7-7---------|
B|-----------5-5-5-|-------2-2-2-----|---------3-3-3-----|---9-9-9---------|
G|-----2p0---6-6-6-|-------2-2-2-----|-----2---2-2-2-----|---9-9-9---------|
D|-2h4-----7-7-7-7-|-4-2---4-4-4-----|-2h4---0-----------|---9-9-9---------|
A|-----------------|-------4-4-4-----|-------------------|-7-7-7-7---------|
E|-----------------|-----2-2-2-2-----|-------------------|-----------------|
  
Verse 3:              
         A
Honestly I feel
 F#m
I won't heal
              D
I just can't go on
E                       A
I just can't Without you

Final Chorus:
Bm                 E          A     G     D
 Cause I'd be lost forever if you slipped away 
 Bm                   E       A   G   D
 Blue eyes you're the reason for my change  
 Bm                   E               A
 Blue eyes you're the reason for my change 
 Bm                   E               A
 Blue eyes you're the reason for my change  
 Bm                   E               A
 Blue eyes you're the reason for my change     





Comments


Popular Timmy Curran tabs & chords
Blue Eyes 2 Chords
Comatose Chords
Comatose 1 Chords
Horses On The Range Chords
If I Only Had A Way Chords
January Chords
Blue Eyes Tabs
Blue Eyes Ukulele
Horses On The Range Ukulele
Troubled Ukulele


Song lyrics



↑ Back to top | Tablatures and chords are parodies/interpretations of the original songs. You may use it for private study, scholarship, research or language learning purposes only
© 2014 AZChords.com Contact us | Privacy policy | DMCA | Add/correct tabs | Request tabs | Top 50 tabs