» » »

Tim Hughes, Take The World Tabs (ver.1)

Artists:  A B C D E F G H I J K L M N O P Q R S T U V W X Y Z # 

Take The World Tabs (ver.1)

Tim Hughes Tabs
Rating:
0/5 (0 votes)
Hard to play? Try these video lessons and learn fast.
                Take the World – Tim Hughes
Capo 1 for original key

I tabbed this out for my church, this is the lead guitar. In the recording there's an
and another electric, both pick/strum the chords (G,D,Em,C) according to the dynamics of
song. It was originally done in word so the spacings may be a little bit out, please 
me if you want the original copy for word!

Enjoy and god bless!

Intro
   G       D         Em      C         G       D         Em      C
 ..1 & 2 & 3 & 4 & | 1 & 2 & 3 & 4 & | 1 & 2 & 3 & 4 & | 1 & 2 & 3 & 4 & |
 e ----------------| ----------------| ----------------| ----------------|
 B ----------------| ----------------| ----------------| ----------------|
 G ----------------| ----------------| ----------------| ----------------|
 D ----------------| ----------------| ----------------| ----------------|
 A ----------------| ----------------| ----------------| ----------------|
 E ----------------| ----------------| ----------------| ----------------|

Verse 1

   G           D                     Em          C
   The world,  is not,               enough,     for me,
 ..1 e & a 2 e & a 3 e & a 4 e & a | 1 e & a 2 e & a 3 e & a 4 e & a |
 e --------------------------------| --------------------------------|
 B --------------------------------| --------------------------------|
 G --------------------------------| --------------------------------|
 D --------------------------------| --------------------------------|
 A --------------------------------| --------------------------------|
 E --------------------------------| --------------------------------|

   G           D                     Em          C
   The world,  is not,               enough,     for me,
 ..1 e & a 2 e & a 3 e & a 4 e & a | 1 e & a 2 e & a 3 e & a 4 e & a |
 e --------------------------------| --------------------------------|
 B --------------------------------| --------------------------------|
 G --------------------------------| --------------------------------|
 D --------------------------------| --------------------------------|
 A --------------------------------| --------------------------------|
 E --------------------------------| --------------------------------|


Chorus
   G           D                     Em              C
                   You can take the world,           Just give me you,
 ..1 e & a 2 e & a 3 e & a 4 e & a | 1 e & a 2 e & a 3 e & a 4 e & a |
 e --------------------------------| --------------------------------|
 B --------------------5-----------| --------------------------------|
 G ----------------------------7---| ------------4---5---7---5---4---|
 D --------------------------------| --------------------------------|
 A --------------------------------| --------------------------------|
 E --------------------------------| --------------------------------|

   G           D                     Em              C
                   You can take the world,           Just give me you,
 ..1 e & a 2 e & a 3 e & a 4 e & a | 1 e & a 2 e & a 3 e & a 4 e & a |
 e --------------------------------| --------------------------------|
 B -------------------5------------| --------------------------------|
 G ---------------------------7----| ------------4---5---7---5---4---|
 D 5-------------------------------| --------------------------------|
 A --------------------------------| --------------------------------|
 E --------------------------------| --------------------------------|


Verse 2
        G           D                     Em          C
   The world,  is not,               enough,     for me,
 ..1 e & a 2 e & a 3 e & a 4 e & a | 1 e & a 2 e & a 3 e & a 4 e & a |
 e --------------------------------| --------------------------------|
 B ------------8---7---5---7---8---| ------------------------3-------|
 G --------------------------------| --------------------4h5-----5---|
 D --------------------------------| --------------------------------|
 A --------------------------------| --------------------------------|
 E --------------------------------| --------------------------------|

        G           D                     Em          C
   The world,  is not,               enough,     for me,
 ..1 e & a 2 e & a 3 e & a 4 e & a | 1 e & a 2 e & a 3 e & a 4 e & a | 1  |
 e --------------------------------| --------------------------------| ---|
 B ------------8---7---5---7---8---| ------------------------3-------| ---|
 G --------------------------------| --------------------4h5-----5---| ---|
 D 5-------------------------------| --------------------------------| 5--|
 A --------------------------------| --------------------------------| ---|
 E --------------------------------| --------------------------------| ---|

Chorus
   G           D                     Em              C
                   You can take the world,           Just give me you,
 ..1 e & a 2 e & a 3 e & a 4 e & a | 1 e & a 2 e & a 3 e & a 4 e & a |
 e --------------------------------| --------------------------------|
 B 8-------8-------8-------8-------| 8-------8-------10------10------|
 G ----7-------7-------7-------7---| ----7-------7-------7-------7---|
 D --------------------------------| --------------------------------|
 A --------------------------------| --------------------------------|
 E --------------------------------| --------------------------------|

   G           D                     Em              C
                   You can take the world,           Just give me you,
 ..1 e & a 2 e & a 3 e & a 4 e & a | 1 e & a 2 e & a 3 e & a 4 e & a |
 e --------------------------------| ----------------7-------7-------|
 B 8-------8-------8-------8-------| 10------10----------------------|
 G ----7-------7-------7-------7---| ----7-------7-------7-------7---|
 D --------------------------------| --------------------------------|
 A --------------------------------| --------------------------------|
 E --------------------------------| --------------------------------|

 End on
 ..1 & 2 & 3 & 4 & |
 e ----------------|
 B 8---------------|
 G ----------------|
 D ----------------|
 A ----------------|
 E ----------------|
            

comments powered by Disqus
↑ Back to top | Tim Hughes Tabs for Take The World. Lyrics for acoustic guitar and electric guitar. Tablatures and chords are parodies/interpretations of the original songs. You may use it for private study, scholarship, research or language learning purposes only