» » »

Tim Hughes, Happy Day Bass tabs (ver.2)

Artists:  A B C D E F G H I J K L M N O P Q R S T U V W X Y Z # 

Happy Day Bass tabs (ver.2)

Tim Hughes Tabs
 Rating:
4/5 (4 votes)
Happy Day lessons Tabs too difficult? Try these video lessons and learn fast
                Song-Happy Day
Artist-Tim Hughes
Type-Bass Tab
Tuning-Standard

INTRO

Bass starts playing in second round of intro.

  C                  F                 Am                  G

G|----------0-0----------2-2--5-5--2-2------------2-2--------------0-0------|
D|------2-2-----2-2--3-3---------------------2-2------2-2------0-0------0-0-|
A|-3-3----------------------------------0-0----------------2-2--------------|
E|--------------------------------------------------------------------------|


VERSE

   Greatest day in history,        Death is beaten, you have recued me
G|--------------------------------------------------------------------------|
D|---------------------------------3-3-3-3-3-3-3-3-3-3-3-3-3-2-3-5----------|
A|-3-3-3-3-3-3-3-3-3-3-3-3-3-3-3-3------------------------------------------|
E|--------------------------------------------------------------------------|
   Shout it out, Jesus is alive.
G|-2-2-2-2-2-2-2-2-2-2-2-2-2-2-2-2------------------------------------------|
D|---------------------------------3-3-3-3-3-3-3-3-3-3-3-3-3-2-3-5----------|
A|--------------------------------------------------------------------------|
E|--------------------------------------------------------------------------|

  The empty cross, the empty grave.  Life eternal, you have won the day
G|--------------------------------------------------------------------------|
D|-----------------------------------3-3-3-3-3-3-3-3-3-3-3-3-3-2-3-5--------|
A|-3-3-3-3-3-3-3-3-3-3-3-3-3-3-3-3------------------------------------------|
E|--------------------------------------------------------------------------|

   Shout it out, Jesus is alive
G|-2-2-2-2-2-2-2-2-2-2-2-2-2-2-2-2------------------------------------------|
D|---------------------------------3-3-3-3-3-3-3-3-3-3-3-3-3-2-3-5----------|
A|--------------------------------------------------------------------------|
E|--------------------------------------------------------------------------|

   He's alive
G|-0-0-0-0-0-0-0-0-0-0-0-0-0-0-0-0------------------------------------------|
D|--------------------------------------------------------------------------|
A|--------------------------------------------------------------------------|
E|--------------------------------------------------------------------------|

CHORUS- same as intro

   Oh, happy day, happy day,                          you washed my sin away
G|---------0-0----------2-2-5-5-2-2----------2-2--------------0-0-----------|
D|-----2-2-----2-2--3-3------------------2-2-----2-2------0-0-----0-0-------|
A|-3-3-------------------------------0-0--------------2-2-------------------|
E|--------------------------------------------------------------------------|
 Play this 4 times


PLAY THE VERSE AGAIN THE SAME WAY



CHORUS



BRIDGE

  Oh, what a glorius day, what a glorious way, that you have saved me
G|--------------------------------------------------------------------------|
D|-------------------2--------------------3---------------------------------|
A|-0-----------------------------------------------3----3----3-----3--------|
E|--------------------------------------------------------------------------|

And oh, what a glorious day, what a glorius name.    Hey!
G|--------------------------------------------------------------------------|
D|----------------------2-------------------3-------------------------------|
A|---0----------------------------------------------3-3-3-3-----------------|
E|--------------------------------------------------------------------------|

CHORUS AGAIN

After last D, Finish on the C.
Hope you find this tab helpful.
            
Submit corrections

comments powered by Disqus
↑ Back to top | Tim Hughes Bass for Happy Day. Lyrics for acoustic guitar and electric guitar. Tablatures and chords are parodies/interpretations of the original songs. You may use it for private study, scholarship, research or language learning purposes only