» » »

Happy Day Tabs (ver.1)

Artists:  A B C D E F G H I J K L M N O P Q R S T U V W X Y Z # 

Happy Day Tabs (ver.1)

Tim Hughes
Rating:
4/5 (10 votes)

Hard to play? Try these video lessons and learn fast.
                
Intro:

e|----------------------------------|
B|-888888888666666665555555566666---|
G|-555555555555555555555555555555---|
D|----------------------------------|
A|----------------------------------|
E|-------------------------------00-|
                                 **

e|----------------------------------|
B|-88888888866666666555555556666666-|
G|-55555555555555555555555555555555-|
D|----------------------------------|
A|----------------------------------|
E|----------------------------------|

Verse:

e|------------|-----|---8—-8----|---|
B|--5h8-5h8---|-----|--8—-8-----|---|
G|-5---5---55-|-----|-5—-5—-555-|---|
D|------------|-----|-----------|---|
A|------------|-x16-|-----------|x2-|
E|------------|-----|-----------|---|
   x   x   xx

Chorus:

e|----------------------------------|----|
B|-88888888866666666555555556666666-|----|
G|-55555555555555555555555555555555-|----|
D|----------------------------------|----|
A|----------------------------------|-x2-|
E|----------------------------------|----|

Interlude:

Guitar 1:
e|----------------------------------|----|
B|-88888888866666666555555556666666-|----|
G|-55555555555555555555555555555555-|----|
D|----------------------------------|----|
A|----------------------------------|-x2-|
E|----------------------------------|----|

Guitar 2: x2
e|-------------12-12-------------12-12-13-13-------|
B|-13-13-15-15-------13-13-15-15-------------15-15-|
G|-------------------------------------------------|
D|-------------------------------------------------|
A|-------------------------------------------------|
E|-------------------------------------------------|

e|-------------12-12-------------------------------|
B|-13-13-15-15-------13-13-12-12-12-12-12-12-12-12-|
G|-------------------------------------------------|
D|-------------------------------------------------|
A|-------------------------------------------------|
E|-------------------------------------------------|

Verse:

Chorus:

Interlude:

Bridge:

e|------------------------------------------------------|
B|-13~~~15\12~~~10/13~~~13131313131313131313131313131313|
G|------------------------------------------------------|
D|------------------------------------------------------|
A|------------------------------------------------------|
E|------------------------------------------------------|

e|----------------------15151515151515151515151515151515|
B|-13~~~15\12~~~10/13~~~--------------------------------|
G|------------------------------------------------------|
D|------------------------------------------------------|
A|------------------------------------------------------|
E|------------------------------------------------------|

Chorus:

Outro:

Guitar 1:
e|----------------------------------|----|
B|-88888888866666666555555556666666-|----|
G|-55555555555555555555555555555555-|----|
D|----------------------------------|----|
A|----------------------------------|-x2-|
E|----------------------------------|----|

e|------------------|
B|-66665555---------|
G|-55555555---------|
D|-55555555-5~~~~~~-|
A|-55555555-5~~~~~~-|
E|-33333333-3~~~~~~-|


Guitar 2:
e|-------------12-12-------------12-12-13-13-------|
B|-13-13-15-15-------13-13-15-15-------------15-15-|
G|-------------------------------------------------|
D|-------------------------------------------------|
A|-------------------------------------------------|
E|-------------------------------------------------|

e|-------------12-12-------------------------------|
B|-13-13-15-15-------13-13-12-12-12-12-12-12-12-12-|
G|-------------------------------------------------|
D|-------------------------------------------------|
A|-------------------------------------------------|
E|-------------------------------------------------|

e|-------------12-12-------------12-12-13-13-------|
B|-13-13-15-15-------13-13-15-15-------------15-15-|
G|-------------------------------------------------|
D|-------------------------------------------------|
A|-------------------------------------------------|
E|-------------------------------------------------|

e|-------------12-12-------------------------------|
B|-13-13-15-15-------13-13-12-12-12-12-12-12-12-12-|
G|-------------------------------------------------|
D|-------------------------------------------------|
A|-------------------------------------------------|
E|-------------------------------------------------|

e|-13-13-13-13-13-12-12-12-12---------|
B|----------------------------13~~~~~-|
G|------------------------------------|
D|------------------------------------|
A|------------------------------------|
E|------------------------------------|

| /  slide up
| \  slide down
| h  hammer-on
| p  pull-off
| ~  vibrato
| +  harmonic
| x  Mute note

Enjoy!
            
Hard to play? Try these video lessons and learn fast. | Correct




comments powered by Disqus
↑ Back to top | Tablatures and chords are parodies/interpretations of the original songs. You may use it for private study, scholarship, research or language learning purposes only