» » »

Hallucinations Tabs (ver.2)

Artists:  A B C D E F G H I J K L M N O P Q R S T U V W X Y Z # 

Hallucinations Tabs (ver.2)

Tim Buckley
Rating:
0/5 (0 votes)

Tabs too difficult? Try these video lessons and learn fast.
                
*************************************
INTRO
*************************************

(Em impro)
----------------------------|
----------------------------|
------4-2-------------------|
--4_5-----5-2---------------|
----------------------------|
-(0)------------------------|

*************************************
VERSE
*************************************

-----------------------3--2--0-0_2-0..-|
---------------------------------------|
--0--0..------------------2--0-----0---|
---------------------------------------|
---------------------------------------|
-0--0------------------3--2--0---2-0..-|
I saw you walking only yesterday..

--------7---5---3---5-----|
--------0---3---0---3-----|
--------------------------|
--------------------------|
--------------------------|
--------3---2---0---2-----|
when I ran to catch you

----2-----2------3--2---0------2----7--5--3------0---|
-3-----3---------0--0---0------0----8--7--5--3-------|
------------------------------------0------------0---|
-0--4--0--4------5--4---2------4----5--4--2--0-------|
-----------------------------------------------------|
-------------------------------------------------0---|
you disappeared and the street was grey..

-7---------------------------5---------------3------------5-------|
---0---------------------------3---------------1------------3-----|
------0..------------------------0..-------------0..----------0..-|
------------------------------------------------------------------|
------------------------------------------------------------------|
-3---------------------------2---------------3------------2-------|
The candle died, now you are gone / For the flame was too bright

-------------0(_2_3)-5-3-2-0---0-----------------(3_2_0_ ---)-|
-------------0(_2_3)-5-3-2-0-3-0-3-0--------------------3..---|
-----------------------------2---2-0-0-2-------0--------------|
-----------------------------0---0---0-0-4_2_0----------------|
-----------------------------------2--------------------------|
-------------0(_2_3)-5-3-2-0---0-----3---2-----0--------------|
Now you are gone

I heard you laughing
With your laugh of gold
When I calfed out to you
Sifence returned and the air was cold
The castl-e feff/ now You are gone
And no more rings the bel-l
Now you are gone

I found your letter
On the day it rained
When I tore it open
There in my hands only ash remained
The castfe fefl-, now you are gone
And no more rings the bel-l
Now you are gone

I felt you breathing
As I fell asleep
When I reached to touch you
No one was there and the night was deep
The candle died, now you are gone
For the flame was too bright
Now you are gone

I saw you walking
Only yesterday
When I ran to catch you
You disappeared and the street was grey
The candle died, now you are gone
For the flame was too bright
Now you are gone
            
Tabs too difficult? Try these video lessons and learn fast.


comments powered by Disqus
↑ Back to top | Tablatures and chords are parodies/interpretations of the original songs. You may use it for private study, scholarship, research or language learning purposes only