>
 >
Hold On

Hold On Guitar Tabs

Tim Armstrong - Hold On chords, tabs, tablatures, lyrics

Guitar lessons | Add/correct | Request | Top 50 tabs Artists:  A B C D E F G H I J K L M N O P Q R S T U V W X Y Z 0-9

Hold On Guitar Tabs – Tim Armstrong

CD, Sheet music, Poster

Do you like Hold On? Share with your friends now
Tabs
----------------------------------------------------------------------------
----------------------------------------------------------------------------
Tuning:Standard

INTRO pt1

E-7-7-7-7--5-5-5-5--7-7-7-7--5-5-5-5-
B-9-9-9-9--5-5-5-5--9-9-9-9--5-5-5-5-
G-9-9-9-9--6-6-6-6--9-9-9-9--6-6-6-6-
D-9-9-9-9--7-7-7-7--9-9-9-9--7-7-7-7-    
A-7-7-7-7--7-7-7-7--7-7-7-7--7-7-7-7-
E----------5-5-5-5-----------5-5-5-5-

INTRO pt2

E-7-7-7-7--5-5-7-7-
B-9-9-9-9--5-5-9-9-
G-9-9-9-9--6-6-9-9-
D-9-9-9-9--7-7-9-9-    x4
A-7-7-7-7--7-7-7-7-
E----------5-5-----


VERSE + CHORUS + OUTRO

E-7-7-7-7--5-5-7-7-
B-9-9-9-9--5-5-9-9-
G-9-9-9-9--6-6-9-9-
D-9-9-9-9--7-7-9-9-    x4
A-7-7-7-7--7-7-7-7-
E----------5-5-----


PRE VERSE + SOLO 

E-5-5-5-5--7-7-7-7-
B-7-7-7-7--7-7-7-7-
G-7-7-7-7--8-8-8-8-
D-7-7-7-7--9-9-9-9-    x2 
A-5-5-5-5--9-9-9-9-
E----------7-7-7-7-

END ON

E-7~------
B-9~------
G-9~------
D-9~------
A-7~------
E---------





Comments


Popular Tim Armstrong tabs & chords
Into Action Chords
Lady Demeter Chords
Shes Drunk All The Time Chords
Translator Tabs
Wake Up Tabs
Into Action Ukulele
Lady Demeter Ukulele


Song lyrics



↑ Back to top | Tablatures and chords are parodies/interpretations of the original songs. You may use it for private study, scholarship, research or language learning purposes only
© 2014 AZChords.com Contact us | Privacy policy | DMCA | Add/correct tabs | Request tabs | Top 50 tabs