» » »

War Room Bass tabs (ver.1)

Artists:  A B C D E F G H I J K L M N O P Q R S T U V W X Y Z # 

War Room Bass tabs (ver.1)

Tilt
Rating:
0/5 (0 votes)

Hard to play? Try these video lessons and learn fast.
                Song name: War Room
**= 16 times
*= 8 times
Part1
G |-----------------------------------------------------|
D |---6-6-6----4-4-4------------------------------------| 
A |---------6---------5/6-6-6-6-7-9-7-------------------|
E |-----------------------------------------------------|

at 00:26 Part2
G |-----------------------------------------------------|
D |-----------------------------------------------------|
A |-6**-2**--6**-2*-4*----------------------------------|
E |-----------------------------------------------------|

at 00:39 Part3 Chorus
G |-----------------------------------------------------|
D |--4-4-4--------------------------3-4-3---------------|
A |--------4-4-4---6-6-6--2-2-2---6-------6-3-2---------|
E |-----------------------------------------------------|

Then repeat all as needed.

That's all.
            
Hard to play? Try these video lessons and learn fast. | Correct




comments powered by Disqus
↑ Back to top | Tablatures and chords are parodies/interpretations of the original songs. You may use it for private study, scholarship, research or language learning purposes only