» » »

Ugly Dog Bass tabs (ver.2)

Artists:  A B C D E F G H I J K L M N O P Q R S T U V W X Y Z # 

Ugly Dog Bass tabs (ver.2)

Tilt
Rating:
0/5 (0 votes)

Hard to play? Try these video lessons and learn fast.
                -----------------------------------------------------------------------
                          UGLY DOG       TILT
-----------------------------------------------------------------------
 
Intro and Verse
G]--------------------------------------------------------------------------]
D]--------------------------------------------------------------------------]
A]---------9-9-9-9----------0-0-0-0---------7-6-5-4---------9-9-9-9---------]
E]-6-6-6-6----------5-4-3-2---------5-5-5-5---------0-0-0-0---------6-6-6-6-]
 
Chorus
G]-----------------------------------------------------------------]
D]-----------------------------------------------------------------]
A]---------0-0-0-0---------0-0-0-0---------0-2-4-6---------0-0-0-0-]
E]-6-0-5-0---------2-3-4-5---------6-0-5-0---------8-8-8-8---------]
 
That's it. Play the verse a couple of times, chorus once, verse a few
more times then the chorus.
            
Hard to play? Try these video lessons and learn fast. | Correct




comments powered by Disqus
↑ Back to top | Tablatures and chords are parodies/interpretations of the original songs. You may use it for private study, scholarship, research or language learning purposes only