» » »

Tiger Lou, Sell Out Tabs (ver.1)

Artists:  A B C D E F G H I J K L M N O P Q R S T U V W X Y Z # 

Sell Out Tabs (ver.1)

Tiger Lou Tabs
 Rating:
4/5 (4 votes)
Sell Out lessons Tabs too difficult? Try these video lessons and learn fast
                Tiger Lou
 Standard Tuning

    This is the Rhythem
 
e|-------------------------------------------------------------------------
B|-------------------------------------------------------------------------
G|--9--9-9---9--9-9---9--9-9---9--9-9---13--13-13---13--13-13---8--8-8---8-
D|--9--9-9---9--9-9---9--9-9---9--9-9---11--11-11---11--11-11---8--8-8---8-
A|--7--7-7---7--7-7---7--7-7---7--7-7---11--11-11---11--11-11---6--6-6---6-
E|-------------------------------------------------------------------------


------------------------------|
------------------------------|
-8-8--------------------------| and repeat
-8-8--------------------------|
-6-6--------------------------|
------------------------------|

    This is the little Melody you can hear behind the rhythem

e|---6---6---6---6---7---7---7---7-----|
B|-7---7---7---7---7---7---7---7-------|
G|-------------------------------------|
D|-------------------------------------|
A|-------------------------------------|
E|-------------------------------------|


          This is the Bass Line

G|------------------------------------------|
D|------------------------------------------|  ~ = Vabrato
A|--11~~~-------6~~~-------7~~~-------------|
E|------------------------------------------|


Thats Basically it
            
Submit corrections

comments powered by Disqus
↑ Back to top | Tiger Lou Tabs for Sell Out. Lyrics for acoustic guitar and electric guitar. Tablatures and chords are parodies/interpretations of the original songs. You may use it for private study, scholarship, research or language learning purposes only