>
 >
Like My Very Own Blood

Like My Very Own Blood Guitar Tabs

Tiger Lou - Like My Very Own Blood chords, tabs, tablatures, lyrics

Guitar lessons | Add/correct | Request | Top 50 tabs Artists:  A B C D E F G H I J K L M N O P Q R S T U V W X Y Z 0-9

Like My Very Own Blood Guitar Tabs – Tiger Lou

CD, Sheet music, Poster

Do you like Like My Very Own Blood? Share with your friends now
Tabs
Tiger Lou
     Standard Tuning

     This is the Rhythem

e|-------------------------------------------------------------------------
B|-13-------13-------13-------13-------13----13-------14-----14-------14---
G|----13-13----13-13----13-13----13-13----13----13-13---13-13---13-13---13-
D|-------------------------------------------------------------------------
A|-------------------------------------------------------------------------
E|-------------------------------------------------------------------------

---14----14----------|
-13---13----13-------|
---------------------| Repeat (Listen and you'll get it)
---------------------|
---------------------|
---------------------|


       This is the Bridge 2:19 (This may not be right, but it sounds close)
e|-----------------------------------------------------------|
B|-----------------------------------------------------------|
G|-----------------------------------------------------------|
D|-9----9----9------9-------10--10--10-----10------10--------| x6
A|---10---10---10-10--10-10---10--10--10-10---10-10----------|
E|-----------------------------------------------------------|

   (Play these fast, you hear them)
e|--8-8-8-8-8-8---9-9-9-9-9-9---11-11-11-11-11-11-11---13-13-13-13-13-13--|
B|------------------------------------------------------------------------|
G|------------------------------------------------------------------------|
D|------------------------------------------------------------------------|
A|------------------------------------------------------------------------|
E|------------------------------------------------------------------------|

Sorry if any of it is wrong, its enough to get the general gist of the song. Hope it helps :)





Comments


Popular Tiger Lou tabs & chords
A Room With A View Chords
Between The Douglas Furs Chords
Functions Chords
Functions Tabs
Nixon Intro Tabs
The Sound Of Crickets Tabs
The War Between Us Tabs
A Room With A View Ukulele
Functions Ukulele
Just Like You Said Ukulele


Song lyrics



↑ Back to top | Tablatures and chords are parodies/interpretations of the original songs. You may use it for private study, scholarship, research or language learning purposes only
© 2014 AZChords.com Contact us | Privacy policy | DMCA | Add/correct tabs | Request tabs | Top 50 tabs