» » »

Tiger Lou, Functions Tabs (ver.1)

Artists:  A B C D E F G H I J K L M N O P Q R S T U V W X Y Z # 

Functions Tabs (ver.1)

Tiger Lou Tabs
 Rating:
4/5 (4 votes)
Functions lessons Tabs too difficult? Try these video lessons and learn fast
1
                Tiger Lou
     No One seems to get this song right, this sounds very accurate to me.

Chords
   A#    A     Gm    C
e|-6-| |-5-| |-3-| |-8--|
B|-6-| |-5-| |-3-| |-8--|
G|-7-| |-6-| |-3-| |-9--|
D|-8-| |-7-| |-5-| |-10-|
A|-8-| |-7-| |-5-| |-10-|
E|-6-| |-5-| |-3-| |-8--|



   This is the Rhythem
    A#    A          Gm           A#     A           Gm
e|--6-6---5-5-5-x----3--3-3-------6-6----5-5-5-x-----3--3-3-------------|
B|--6-6---5-5-5-x----3--3-3-------6-6----5-5-5-x-----3--3-3-------------|
G|--7-7---6-6-6-x----3--3-3-------7-7----6-6-6-x-----3--3-3-------------|
D|--8-8---7-7-7-x----5--5-5-------8-8----7-7-7-x-----5--5-5-------------|
A|--8-8---7-7-7-x----5--5-5-------8-8----7-7-7-x-----5--5-5-------------|
E|--6-6---5-5-5-x----3--3-3-------6-6----5-5-5-x-----3--3-3-------------|

     C        A#    A    Gm
e|---8--8-----6-6-6-5----3-3------|
B|---8--8-----6-6-6-5----3-3------|
G|---9--9-----7-7-7-6----3-3------|
D|---10-10----8-8-8-7----5-5------|
A|---10-10----8-8-8-7----5-5------|
E|---8--8-----6-6-6-5----3-3------|

The Alteration (Twards the end of song. The little melody that picks up sounds like its 
on a second guitar, but you could play it anyway)

   A#        A    Gm   A#        A    Gm
e|-6----6----5----3----6----6----5----3----|
B|-6----6----5----3----6----6----5----3----|
G|-7----7----6----3----7----7----6----3----| x2
D|-8----8----7----5----8----8----7----5----|
A|-8----8----7----5----8----8----7----5----|
E|-6----6----5----3----6----6----5----3----|

        A#                A        Gm
e|------6--------6--------5--------3-------|
B|------6--------6--------5--------3-------|
G|-7-7--7---7-7--7---6-6--6---3-3--3-------|
D|------8--------8--------7--------5-------|
A|------8--------8--------7--------5-------|
E|------6--------6--------5--------3-------|


        A#                A    Gm
e|------6--------6--------5----3----|
B|------6--------6--------5----3----|
G|-7-7--7---7-7--7---6-6--6----3----|
D|------8--------8--------7----5----|
A|------8--------8--------7----5----|
E|------6--------6--------5----3----|

Ends with

    A#    A          Gm
e|--6-6---5-5-5-x----3--3-3--------|
B|--6-6---5-5-5-x----3--3-3--------|
G|--7-7---6-6-6-x----3--3-3--------|
D|--8-8---7-7-7-x----5--5-5--------|
A|--8-8---7-7-7-x----5--5-5--------|
E|--6-6---5-5-5-x----3--3-3--------|
            
Submit corrections

comments powered by Disqus
↑ Back to top | Tiger Lou Tabs for Functions. Lyrics for acoustic guitar and electric guitar. 1 Tablatures and chords are parodies/interpretations of the original songs. You may use it for private study, scholarship, research or language learning purposes only