» » »

A Partial Print Tabs (ver.1)

Artists:  A B C D E F G H I J K L M N O P Q R S T U V W X Y Z # 

A Partial Print Tabs (ver.1)

Tiger Lou
Rating:
0/5 (0 votes)

Hard to play? Try these video lessons and learn fast.
                Tiger Lou
   A Partial Print
     Standard tuning

This is the very begining

e|---------------------------------------------|
B|---1-----1---1-----1---3-----3---3-----3-----|
G|-2---2-2---2---2-2---2---2-2---2---2-2-------| Repeat
D|---------------------------------------------|
A|---------------------------------------------|
E|---------------------------------------------|

      The song is mostly this. It will sometimes does a variation, but this is mostly 
it. (2:20)


e|-0-------0--0-----0--0-----0--0------0--0-----0--0-----0---|
B|-------1--------1--------1---------1--------1--------1-----|
G|-----2--------2--------2--------2---------2--------2-------|
D|-----------------------------------------------------------|
A|-----------------------------------------------------------|
E|-----------------------------------------------------------|


e|-1-----1--1-----1--1-----1--1------1--1------1--1------1---|
B|-----3--------3--------3---------3---------3---------3-----|
G|---2--------2--------2---------2---------2---------2-------|
D|-----------------------------------------------------------|
A|-----------------------------------------------------------|
E|-----------------------------------------------------------|



This is one of the Variations (4:10)


e|-0-----0----0----0----0----0----0---|
B|-----1----1----1----1----1----1-----|
G|---2----2----2----2----2----2-------|
D|------------------------------------|
A|------------------------------------|
E|------------------------------------|


e|-1-----1----1----1----1----1----1----|
B|-----3----3----3----3----3----3------|
G|---2----2----2----2----2----2--------|
D|-------------------------------------|
A|-------------------------------------|
E|-------------------------------------|


     A mini solo (5:46) Its not super fast, so listen to get the rhythem. Nor is it very long.

e|---------------------------------------------------------------------|
B|---1-------1-------1-------1--------3-------3-------3-------3--------|
G|-2---2---2---2---2---2---2---2----2---2---2---2---2---2---2---2------|
D|---------------------------------------------------------------------|
A|---------------------------------------------------------------------|
E|---------------------------------------------------------------------|


This is the Violin at the end (Roughly 8:00) I didn't tab exactly how many times they 
play it just enough to get the gist of it, and the very end.


e|-0----------1-3-1----------0-------1-3-1----------0------1-3-1---------0-|
B|---1------3-------3-----1--------3-------3-----1-------3-------3----1----|
G|--------2----------------------2---------------------2-------------------|
D|-------------------------------------------------------------------------|
A|-------------------------------------------------------------------------|
E|-------------------------------------------------------------------------|


-----1-3-1--------0---0------0---------1-3-1------0----0-----------1------0|
---3-------3----1------1-------1-----3-------3--1-------1------3-------3---|
-2----------------------2----------2---------------------2-----------------|
---------------------------------------------------------------------------|
---------------------------------------------------------------------------|
---------------------------------------------------------------------------|

                 The last Note is on a triangle, but you could play e(Open) and let it 
ring to get the same effect.


                Apply these and you'll get the song
            
Hard to play? Try these video lessons and learn fast. | Correct




comments powered by Disqus
↑ Back to top | Tablatures and chords are parodies/interpretations of the original songs. You may use it for private study, scholarship, research or language learning purposes only