>
 >
Dreams Never Die

Dreams Never Die Guitar Tabs

Tiffany - Dreams Never Die chords, tabs, tablatures, lyrics

Guitar lessons | Add/correct | Request | Top 50 tabs Artists:  A B C D E F G H I J K L M N O P Q R S T U V W X Y Z 0-9

Dreams Never Die Guitar Tabs – Tiffany

CD, Sheet music, Poster

Do you like Dreams Never Die? Share with your friends now
Tabs

INTRO (w/wah)
-----------------|----10--10----3---|-3h5-3-----------|---------------|
---------8-------|-10h12--10--3h5---|---3-----5-----5-|--3-5------14--|
---------7-------|----------12----4-|---------4-----4-|--4-4------14--|
---------9-------|------------------|-----------5-2-5-|----5------12--|
--7--------------|------------------|-----------------|---------------|
--0--------------|------------------|-----------------|---------12----|
                                                              (wah off)
-----------10----|-----------(7)----|------7----------|---------------|
--14-12----12----|--------(0)-8---5-|------8-------15-|------15--8--5-|
--12-------12----|------------9---6-|------9-9--14h15-|---15p14--7--4-|
--12-------14----|------------9---5-|-----------------|-14-----14---5-|
-----------------|------------------|----7------------|------------7--|
-----------------|--------------7---|-----------------|---------------|

-----------------------|----------------------|-----------------------------|
-15b(17)(17)---(17)(17)|(17)\-----------12-15-|-15b(17)-rp12----------------|
-----------------------|---------14b(16)------|-------------14b(16)r-12-----|
-----------------------|----------------------|------------------------14-12|
-----------------------|----------------------|-----------------------------|
-----------------------|----------------------|-----------------------------|

-----------------------|----------------------|
-----------------------|----------------3-----|
--------0---------0----|-------0-----------0--| play 7 times
--------------------2--|--------------2-------|
----(2)---(2)---2------|----2----2--3---------|
--0-----------0--------|--0-------------------|

--------------------------|----------------------------------------------|
---------x----15------15--|-----15-----15-----15-----15-15----15-----15--|
---------x14b(16)-14b(16)-|-14b(16)14b(16)14b(16)14b(16)1414b(16)14b(16)-|
-14-\(5)------------------|----------------------------------------------|
--------------------------|----------------------------------------------|
--------------------------|----------------------------------------------|

----------------12-------------------|------------------------|----------|
--------------12--15p12--------------|------------------------|----------|
-14p12--14b(16)--------14b(16)rp12---|-------14b(16)12-14--12b|(13)------|
------14--------------------------14-|14\(2)-------------14---|----------|
-------------------------------------|------------------------|----------|
-------------------------------------|------------------------|-----/12\-|

--------------------|---------|--------------------|----|----------------|
--------------------|---------|--------------------|----|----------------|
--------------------|---------|-2b(4)rp0-2-0-------|----|-0-0-0-2p0------|
--------------------|---------|--------------2p0h2-|----|-2-2------------|
--------------------|---------|--------------------|-2--|----------------|
--------------------|---------|--------------------|----|----------------|

------12---------------|---------------------------|-----------x-xxxxxx--|
--15b(17)--------------|-----15--15----15----15----|-----------x-xxxxxx--|
-----------------------|-14b(16)-14-14(16)(16)r-12-|---------------------|
-----------------------|---------------------------|-14--\(12)-----------|
-----------------------|---------------------------|---------------------|
-----------------------|---------------------------|---------------------|

-------------------|-------------|------------------|----------------|
-------------------|-------------|------------------|----------------|
------2--2-x-2-----|-------------|------------------|----------------|
-2--2-2--2-x-2-----|-------------|-2----------------|-2--------------|
-0--0-0--0-x-0---0-|-0-----0-----|-0----------------|-0----------7\--|
-------------------|---------3---|--------------0-0-|----------------|

---------------------------|----------12-------12-----|
-x-------------------------|------15b(17)(17)-(17)p15-|
--2b(4)2b(4)-2(4)p2-2p0----|--------------------------|
-----------------------2p0-|-2---x--------------------|
---------------------------|--------------------------|
---------------------------|--------------------------|

---------------------------|-------------|------------------|-------------|
---------------------------|-------------|------------------|-------------|
-14b(16)rp12-14b(16)r-12---|-------------|------------------|-------------|
------------------------14-|-------------|--2-----------x---|-2-----------|
---------------------------|-------------|--0---------0-x-0-|-0------0----|
---------------------------|--------12\--|------------------|-------------|

------------------------|---------------|---------|-xxxx--------|
------------------------|---------------|---------|-xxxx-4------|
------------------------|---------------|---------|-xxxx-4------|
------------------------|---------------|---------|-----(4)-----|
------------------------|---------------|---------|-------------|
------------------------|---------------|-2-------|-------------|

-----------|-------------------|-----------|--------12-15p12---------------|
-----------|-------------------|-----------|-15b(17)--------15b(17)15b(17)-|
-2---------|--2---------4------|--5----5/--|-------------------------------|
-4----6----|--2---------4------|--5--------|-------------------------------|
-4----6----|--0---------2------|--3--------|-------------------------------|
-2----4----|-------------------|-----------|-------------------------------|

-------------------------|
-------------------------|
-------------------------|
-------------------------|
-------------------------|
-----12\-----------------|

Ending:
"Ahhh . . ."                      "...You can have anything you want..."
---------------0-------------------0-------------------0-------------------0----|
------6-------------------6-------------------6-------------------6-------------|
----------0---(0)-------------0---(0)-------------0---(0)-------------0---(0)---|
---8----------(8)------8----------(8)------8----------(8)------8----------(8)---|
--------------------------------------------------------------------------------|
--------------------------------------------------------------------------------|

------0-----------0-----------0-----------0-----|
----6---6-------6---6-------6---6-------6---6---|
--7-------7---7-------7---7-------7---7-------7-|
0-----------0-----------0-----------0-----------|
------------------------------------------------|
------------------------------------------------|

     "...You can drift you can dream even walk on water..."
---------------0-------------------0-------------------0---|
------6-------------------6-------------------6------------|
----------0---(0)-------------0---(0)-------------0---(0)--|
---8----------(8)------8----------(8)------8----------(8)--|
-----------------------------------------------------------|
-----------------------------------------------------------|

" . . .anything you want . . ."
------0-----------0-----------0-----------0-----|
----6---6-------6---6-------6---6-------6---6---|
--7-------7---7-------7---7-------7---7-------7-|
0-----------0-----------0-----------0-----------|
------------------------------------------------|
------------------------------------------------|

" . . .You can own everything you see..."
---------------0-------------------0-------------------0---|
------6-------------------6-------------------6------------|
----------0---(0)-------------0---(0)-------------0---(0)--|
---8----------(8)------8----------(8)------8----------(8)--|
-----------------------------------------------------------|
-----------------------------------------------------------|

" . . .Sell your soul for complete control..."
------0-----------0-----------0-----------0-----|
----6---6-------6---6-------6---6-------6---6---|
--7-------7---7-------7---7-------7---7-------7-|
0-----------0-----------0-----------0-----------|
------------------------------------------------|
------------------------------------------------|

" . . .Is that really what you need..."
---------------0-------------------0-------------------0---|
------6-------------------6-------------------6------------|
----------0---(0)-------------0---(0)-------------0---(0)--|
---8----------(8)------8----------(8)------8----------(8)--|
-----------------------------------------------------------|
-----------------------------------------------------------|

" . . .You can lose yourself this night..."
------0-----------0-----------0-----------0-----|
----6---6-------6---6-------6---6-------6---6---|
--7-------7---7-------7---7-------7---7-------7-|
0-----------0-----------0-----------0-----------|
------------------------------------------------|
------------------------------------------------|
" . . .See inside there is nothing to hide..."
---------------0-------------------0-------------------0---|
------6-------------------6-------------------6------------|
----------0---(0)-------------0---(0)-------------0---(0)--|
---8----------(8)------8----------(8)------8----------(8)--|
-----------------------------------------------------------|
-----------------------------------------------------------|

" . . .Turn and face the light..."
------0-----------0-----------0-----------0-----|
----6---6-------6---6-------6---6-------6---6---|
--7-------7---7-------7---7-------7---7-------7-|
0-----------0-----------0-----------0-----------|
------------------------------------------------|
------------------------------------------------|
                        " . . .Ahh, ahh, ahh, ahh, ahh, ahh!!!"
-----------------------------------A---------B------A----B-----|
-----------------------------------A---------B------A----B-----|
---------------------10------------A---------B------A----B-----|
-----------------7p5-10------------A---------B------A----B-----|
12p10---12p10---------8------------A---------B------A----B-----|
---------------(8)-----------------A---------B------A----B-----|
"... What do you want,   What do you want from me"
---------------------------------------------------------------|
-----17h19-21-19-21-17-----------------------------------------|
-------------------------3-------------------------------------|
(12)------------------------2p0--------------------------------|
--------------------------------2p0----3-2-0---0---------------|
-------------------------------------0-------3---0-------------|
                                       ^
                     Play ^ part extremley fast and out of time





Comments


Popular Tiffany tabs & chords
All This Time Chords
All This Time 1 Chords
I Saw Him Standing There Chords
I Think We're Alone Now Chords
If Love Is Blind Chords
Almost In Love Tabs
Because Its You Tabs
I Saw Him Standing There Ukulele
If Love Is Blind Ukulele
If Love Is Blind Intro Ukulele


Song lyrics



↑ Back to top | Tablatures and chords are parodies/interpretations of the original songs. You may use it for private study, scholarship, research or language learning purposes only
© 2014 AZChords.com Contact us | Privacy policy | DMCA | Add/correct tabs | Request tabs | Top 50 tabs