» » »

Tickle Me Pink, Strange Life Bass tabs (ver.1)

Artists:  A B C D E F G H I J K L M N O P Q R S T U V W X Y Z # 

Strange Life Bass tabs (ver.1)

Tickle Me Pink Tabs
Rating:
0/5 (0 votes)
Strange Life lessons Tabs too difficult? Try these video lessons and learn fast
                This may not be right, I don't know the song well and am learning it for my band. 
I just figured it out by ear on a guitar but it seems right.

Intro:
|-------------|
|-------------|
|--2--2--2--2-|
|-------------|

Verse:
|---------------------------------|
|---------------------------------|
|---------------------------------|
|-7-7-7-7-7-7-7-7-5-5-5-5-3-3-3-3-|

Pre-Chorus:
|-------------------------------------------------|
|-------------------------------------------------|
|-------------------------------------------------|
|-7-7-7-7-7-7-7-7-5-5-5-5-3-3-3-3-3-3-3-3-3-3-3-3-|

Chorus and Solo:
|-------------------------------------------------------------------|
|-------------------------------------------------------------------|
|-5-5-5-5-5-5-5-5-----------------2-2-2-2-2-2-2-0-0-----------------|
|-----------------3-3-3-3-3-3-3-3-------------------3-3-3-3-3-3-3-3-|

Bridge:
|-------------------------------------------------------------------|
|-------------------------------------------------------------------|
|-5-5-5-5-5-5-5-5-5-7-7-7-7-7-7-7-7-5-5-5-5-5-5-5-5-5-5-5-5-5-5-5-5-|
|-------------------------------------------------------------------|

End:
|---|
|---|
|---|
|-7-|
            

comments powered by Disqus
↑ Back to top | Tickle Me Pink Bass for Strange Life. Lyrics for acoustic guitar and electric guitar. Tablatures and chords are parodies/interpretations of the original songs. You may use it for private study, scholarship, research or language learning purposes only