>
 >
Madeline 2

Madeline 2 Guitar Tabs

Tickle Me Pink - Madeline 2 chords, tabs, tablatures, lyrics

Guitar lessons | Add/correct | Request | Top 50 tabs Artists:  A B C D E F G H I J K L M N O P Q R S T U V W X Y Z 0-9

Madeline 2 Guitar Tabs – Tickle Me Pink

CD, Sheet music, Poster

Do you like Madeline 2? Share with your friends now
ChordsChords v2Chords v3TabsTabs v2Tabs v3Ukulele
-----------------------------------------------------------------------------
                             Madeline 
Tickle Me Pink
-----------------------------------------------------------------------------

Tuning: Standard

e|----------------|----|
B|9---9--9-99-9--9|9---|
G|9---9--9-99-9--9|9---|
D|9---9--9-99-9--9|9---|
A|----7-----7-7---|7---|
E|----------------|----|
  D   D  U DU D  D U

e|----------------|-----------------|----------------|------------------|
B|----------------|-----------------|----9-------9---|----9-------------|
G|----8-------8---|----8-------8----|--9---9----9-9--|--9---9---8b9r8---|
D|----9--------9--|----9--------9---|----------9---9-|------------------|
A|--------------9-|--------------9/-|7-------7-------|7-----------------|
E|x-x---x-x-x-----|x-x---x-x-x------|----------------|------------------|

e|----------------|----------------|-----------------|------------------|
B|----------------|----------------|9-----11b12r11---|9-----11b12r11----|
G|----8-------8---|----8-------8---|9-----9----------|9-----9-----------|
D|----9-------999-|----9-------999-|9----------------|9-----------------|
A|--------------9-|--------------9-|7----------------|7-----------------|
E|x-x---x-x-x-----|x-x---x-x-x-----|-----------------|------------------|

e|----------------|-------------------|--------------------|------------|
B|----------------|-------------------|--------------------|------------|
G|----8-------8---|----7-----9-8------|--------------------|------------|
D|----9-------999-|----9--------11-9-8|6-----89---6-8h9p8-6|----6~~~----|
A|--------------9-|-------------------|--------------------|------------|
E|x-x---x-x-x-----|x-x---x-x----------|--------------------|------------|

e|----------------|----------------|
B|----------------|----------------|
G|----------------|----------------|
D|5---------------|5-x5-5--5-------|
A|6-6-6-6-6-6-6-6-|6-x6-6-66-------|
E|5-3-3-3-3-3-3-3-|3-x3-3-33-------|
    . . . . . . .

e|----------------|----------------|----------------|----------------|
B|----------------|----------------|----------------|----------------|
G|----------------|--------------3/|4-4-4-4-4-4-4-4-|----------------|
D|6-6-6-6-6-6-6-6\|2-2-2-2-2-2-2-3/|4-4-4-4-4-4-4-4-|5-5-5-5-5-5-5-5-|
A|6-6-6-6-6-6-6-6\|2-2-2-2-2-2-2-1/|2-2-2-2-2-2-2-2-|6-6-6-6-6-6-6-6-|
E|4-4-4-4-4-4-4-4\|0-0-0-0-0-0-0---|------------1-2-|3-3-3-3-3-3-3-3-|

e|----------------|----------------|----------------|----------------|
B|----------------|----------------|----------------|----------------|
G|----------------|----------3-4-6-|4-4-4-4-4-4-4-4-|----------------|
D|6-6-6-6-6-6-6-4-|2-2-2-2-2-2-2-2-|4-4-4-4-4-4-4-4-|5-5-5-5-5-5-5-5-|
A|6-6-6-6-6-6-6-4-|2-2-2-2-2-2-2-2-|2-2-2-2-2-2-2-2-|6-6-6-6-6-6-6-6-|
E|4-4-4-4-4-4-4-2-|0-0-0-0-0-0-0-0-|------------1-2-|3-3-3-3-3-3-3-3-|

e|----------------|----------------|-----------------|----------------|
B|--9---9---9---9-|--9---9---9---9-|--9---9----------|----------------|
G|--9---9---9---9-|--9---9---9---9-|--9---9-----8b9r8|--8---8---8-98-8|
D|----------------|----------------|-----------------|--9---9---9-9-9-|
A|----------------|xx-xxx-xxx-xxx-x|xx-xxx-xxx-x-----|----------------|
E|----------------|----------------|-----------------|xx-xxx-xxx------|

e|----------------|-----------------|-----------------|----------------|
B|----------------|--9---9---9------|--9---9---9------|----------------|
G|--8---8---8-98-8|--9---9---9-8b9r8|--9---9---9-8b9r8|--8---8---8-98-8|
D|--9---9---9-9-9-|-----------------|-----------------|--9---9---9-9-9-|
A|----------------|xx-xxx-xxx-x-----|xx-xxx-xxx-x-----|----------------|
E|xx-xxx-xxx------|-----------------|-----------------|xx-xxx-xxx------|

e|----------------|----------------|-----------------|
B|----------------|----------xx----|-----------------|
G|--8---8---8-8---|4---------xx343-|1----------------|
D|--9---9---9--9--|6---------xx----|2----------------|
A|--------------9-|6---------------|2----------------|
E|xx-xxx-xxx------|4---------------|0----------------|

e|----------------|----------------|
B|----------------|----------------|
G|----------------|----------------|
D|5---------------|5-x5-5--5-------|
A|6-6-6-6-6-6-6-6-|6-x6-6-66-------|
E|5-3-3-3-3-3-3-3-|3-x3-3-33-------|
    . . . . . . .

e|----------------|----------------|----------------|----------------|
B|----------------|----------------|----------------|----------------|
G|----------------|--------------3/|4-4-4-4-4-4-4-4-|----------------|
D|6-6-6-6-6-6-6-6\|2-2-2-2-2-2-2-3/|4-4-4-4-4-4-4-4-|5-5-5-5-5-5-5-5-|
A|6-6-6-6-6-6-6-6\|2-2-2-2-2-2-2-1/|2-2-2-2-2-2-2-2-|6-6-6-6-6-6-6-6-|
E|4-4-4-4-4-4-4-4\|0-0-0-0-0-0-0---|------------1-2-|3-3-3-3-3-3-3-3-|

e|----------------|----------------|----------------|----------------|
B|----------------|----------------|----------------|----------------|
G|----------------|----------3-4-6-|4-4-4-4-4-4-4-4-|----------------|
D|6-6-6-6-6-6-6-4-|2-2-2-2-2-2-2-2-|4-4-4-4-4-4-4-4-|5-5-5-5-5-5-5-5-|
A|6-6-6-6-6-6-6-4-|2-2-2-2-2-2-2-2-|2-2-2-2-2-2-2-2-|6-6-6-6-6-6-6-6-|
E|4-4-4-4-4-4-4-2-|0-0-0-0-0-0-0-0-|------------1-2-|3-3-3-3-3-3-3-3-|

e|------------------|----------------|------------------|----------------|
B|----11b12----11b12|----------------|----11b12----11b12|----------------|
G|----9--------9----|--------4-4-4-4-|----9--------9----|----------------|
D|----9--------9----|6-6-6-6-4-4-4-4-|----9--------9----|6-6-6-6-2-2-2-2-|
A|xxxx-----xxxx-----|6-6-6-6-2-2-2-2-|xxxx-----xxxx-----|6-6-6-6-2-2-2-2-|
E|------------------|4-4-4-4---------|------------------|4-4-4-4-0-0-0-0-|

e|------------------|----------------|----------------|---------------4|
B|----11b12----11b12|----------------|----------------|---------------4|
G|----9--------9----|--------4-4-4-4-|6-6-6-6-6-6-6-6-|8--------------4|
D|----9--------9----|6-6-6-6-4-4-4-4-|6-6-6-6-6-6-6-6-|8--------------6|
A|xxxx-----xxxx-----|6-6-6-6-2-2-2-2-|4-4-4-4-4-4-4-4-|6--------------|
E|------------------|4-4-4-4---------|----------------|---------------|

e|----------------|----------------|----------------|----------------|
B|----------------|----------------|----------------|----------------|
G|----------------|----------------|----------------|------------4-4-|
D|--------3-4-5555|5555555555556-6-|6-6-6-6-6-6\2-2-|2-2-2-2-2-2-4-4-|
A|--------3-4-5555|5555555555556-6-|6-6-6-6-6-6\2-2-|2-2-2-2-2-2-2-2-|
E|--------1-2-3333|3333333333334-4-|4-4-4-4-4-4\0-0-|0-0-0-0-0-0-----|

e|----------------|----------------|----------------|----------------|
B|----------------|----------------|----------------|----------------|
G|4-4-4-4-4-4-----|----------------|----------------|------------4-4-|
D|4-4-4-4-4-4-5-5-|5-5-5-5-5-5-6-6-|6-6-6-6-6-6-2-2-|2-2-2-2-2-2-4-4-|
A|2-2-2-2-2-2-6-6-|6-6-6-6-6-6-6-6-|6-6-6-6-6-6-2-2-|2-2-2-2-2-2-2-2-|
E|--------1-2-3-3-|3-3-3-3-3-3-4-4-|4-4-4-4-4-4-0-0-|0-0-0-0-0-0-----|

e|----------------|----------------|
B|----------------|----------------|
G|4-4-4-4-4-4-----|----------------|
D|4-4-4-4-4-4-5-5-|5-5-5-5-5-5-5---|
A|2-2-2-2-2-2-6-6-|6-6-6-6-6-6-6---|
E|------------3-3-|3-3-3-3-3-3-3---|

(Softly strummed)
e|----------------|---------------|----------------|
B|-------------9--|-9--9999-9--99-|--9--9999-9-9---|
G|-------------9--|-9--9999-9--99-|--9--9999-9-9-8-|
D|-------------9--|-9--9999-9--99-|--9--9999-9-9-9-|
A|-------------7--|-7-----7-7---7-|--7-----7-7-7-9-|
E|----------------|---------------|----------------|
               D    D  UDUD D  UD    D  UDUD D D D

************************************

| /   slide up
| \   slide down
| h   hammer-on
| p   pull-off
| ~   vibrato
| x   Mute note
| .   Palm mute
| b   Bend
| br  Bend release

************************************





Comments


Popular Tickle Me Pink tabs & chords
I Can't Breathe Bass Tabs
The Time Is Wrong Bass Tabs
Madeline Chords
Madeline 2 Chords
Typical Chords
Madeline Tabs
Madeline 1 Tabs
Madeline Intro Tabs
Strange Life Tabs
Madeline Ukulele


Song lyrics



↑ Back to top | Tablatures and chords are parodies/interpretations of the original songs. You may use it for private study, scholarship, research or language learning purposes only
© 2014 AZChords.com Contact us | Privacy policy | DMCA | Add/correct tabs | Request tabs | Top 50 tabs