>
 >
Eclipse

Eclipse Guitar Tabs

Thrice - Eclipse chords, tabs, tablatures, lyrics

Guitar lessons | Add/correct | Request | Top 50 tabs Artists:  A B C D E F G H I J K L M N O P Q R S T U V W X Y Z 0-9

Eclipse Guitar Tabs – Thrice

CD, Sheet music, Poster

Do you like Eclipse? Share with your friends now
Bass TabsTabs


DROP C TUNING!!!

  - strumming not defined
~  - let ring out
\  - slide
7x
7x - mute after strumming
5x
t  - finger tap
h  - hammer on
p  - pull off
v  - vibrato

Intro:  (2x)  (Come in with drums)
D|---------------------------------------------------------------------------|
A|---------------------------------------------------------------------------|
F|------------5>-4-4-4-4-----------5>-4-4-4-4-4-4----------------------------|
C|--2>---7>---5>-4-4-4-4-2>---7>---5>-4-4-4-4-4-4----------------------------|
G|--2>---7>---3>-2-2-2-2-2>---7>---3>-2-2-2-2-2-2----------------------------|
C|--2>---7>--------------2>---7>---------------------------------------------|

Verse:  "Call everyone to arms..."  (2x)
D|------------------------------------------|
A|------------------------------------------|
F|------------------------------------------|
C|-2~\x---2-2~\x---4-4-4-5-5-5-7-7-7-0-0-0--|
G|-2~\x---2-2~\x---4-4-4-5-5-5-7-7-7-0-0-0--|
C|-2~\x---2-2~\x---4-4-4-5-5-5-7-7-7-0-0-0--|

Chorus:  "We shot the sun..."  (Repeat intro)

Post Chorus:  "For centuries, we watched..."  (2x)
D|---------------------------------------------------------------------------|
A|---------------------------------------------------------------------------|
F|-5>---7>----------5>---7>--------------------------------------------------|
C|-5>---7>---2>-----5>---7>---x-x-x-x---x--x-x-x-x---x--x-x-x-x--------------|
G|-3>---5>---2>-----3>---5>---x-x-x-x---x--x-x-x-x---x--x-x-x-x--------------|
C|-----------2>---------------x-x-x-x---x--x-x-x-x---x--x-x-x-x--------------|

2nd Verse:  "Call everyone..."
D|---------------------------------------------------------------------------|
A|---------------------------------------------------------------------------|
F|---------------------------------------------------------------------------|
C|-2~\x---2-2~\x---4-4-4-5-5-5-7-7-7-0-0-0--2~\x---2-2~\x---4-4-4-5-5-5-7-7-7|
G|-2~\x---2-2~\x---4-4-4-5-5-5-7-7-7-0-0-0--2~\x---2-2~\x---4-4-4-5-5-5-7-7-7|
C|-2~\x---2-2~\x---4-4-4-5-5-5-7-7-7-0-0-0--2~\x---2-2~\x---4-4-4-5-5-5-7-7-7|

2nd Verse Cont'd:
D|---------------------------------|
A|---------------------------------|
F|---------------------------------|
C|0-0-0-4-4-4-5-5-5-7-7-7-0-0-0----|
G|0-0-0-4-4-4-5-5-5-7-7-7-0-0-0----|
C|0-0-0-4-4-4-5-5-5-7-7-7-0-0-0----|

Repeat Chorus  "Eclipse His body..."

Post Chorus:  "For centuries, we watched..."
D|---------------------------------------------------------------------------|
A|---------------------------------------------------------------------------|
F|-5~---7~--------5>---7>--------5>---7>--------5>---7>---5>x----------------|
C|-5~---7~---2>---5>---7>---2>---5>---7>---2>---5>---7>---5>x----------------|
G|-3~---5~---2>---3>---5>---2>---3>---5>---2>---3>---5>---3>x----------------|
C|-----------2>-------------2>-------------2>--------------------------------|

Bridge:  "For centurieeeeeeeeeeees..."
D|----------------------------------------|
A|----------------------------------------|
F|------7>---5>-------------7>---5>---7>--|
C|-2>---7>---5>---7>---2>---7>---5>---7>--|
G|-2>---5>---3>---7>---2>---5>---3>---5>--|
C|-2>-------------7>---2>-----------------|

Outro:  "We burned to bridge..."
D|---------------------------------------------------------------------------|
A|---------------------------------------------------------------------------|
F|------7>---5>-------------7>---5>------------------------------------------|
C|-2>---7>---5>---7>---2>---7>---5>---0-0-0-0-0-0-0-0-2~---------------------|
G|-2>---5>---3>---7>---2>---5>---3>---0-0-0-0-0-0-0-0-2~---------------------|
C|-2>-------------7>---2>-------------0-0-0-0-0-0-0-0-2~---------------------|

GUITAR 2'S PARTS:
-----------------
Intro:  (34x)
D|--------|
A|-7------|
F|---9-9--|
C|--------|
G|--------|
C|--------|

Verse:  "Call everyone to arms...  (Same as guitar 1)

Chorus:  "We shot the sun..."(Repeat intro)

Post Chorus:  "For centuries, we watched..."  (Same as guitar 1)

2nd Verse:  "Call everyone..."
D|---------------------------------------------------------------------------|
A|7-----7-----7-----7-----7-----7-----7-----7--------------------------------|
F|--9-9---9-9---9-9---9-9---9-9---9-9---9-9---9-9----------------------------|
C|------------------------------------------------4-4-4-5-5-5-7-7-7-0-0-0----|
G|------------------------------------------------4-4-4-5-5-5-7-7-7-0-0-0----|
C|------------------------------------------------4-4-4-5-5-5-7-7-7-0-0-0----|

2nd Verse Cont'd:
D|---------------------------------------------------------------------------|
A|7-----7-----7-----7-----7-----7-----7-----7--------------------------------|
F|--9-9---9-9---9-9---9-9---9-9---9-9---9-9---9-9----------------------------|
C|------------------------------------------------4-4-4-5-5-5-7-7-7-0-0-0----|
G|------------------------------------------------4-4-4-5-5-5-7-7-7-0-0-0----|
C|------------------------------------------------4-4-4-5-5-5-7-7-7-0-0-0----|

2nd Verse Cont'd:
D|------------------------------|
A|------------------------------|
F|------------------------------|
C|-4-4-4-5-5-5-7-7-7-0-0-0------|
G|-4-4-4-5-5-5-7-7-7-0-0-0------|
C|-4-4-4-5-5-5-7-7-7-0-0-0------|

Chorus:  "Eclipse His body..."  (Repeat 1st Chorus for 1st half)

Chorus Cont'd:
D|---------------------------------------------------------------------------|
A|10-------10-------10-------10-------10-------10-------10-------------------|
F|---12-12----12-12----12-12----12-12----12-12----12-12----12-12-------------|
C|---------------------------------------------------------------------------|
G|---------------------------------------------------------------------------|
C|---------------------------------------------------------------------------|

Chorus Cont'd:
D|---------------------------------------------------------------------------|
A|13-------13-------13-------13-------13-------13-------13-------13----------|
F|---16-16----16-16----16-16----16-16----16-16----16-16----16-16----16-16----|
C|---------------------------------------------------------------------------|
G|---------------------------------------------------------------------------|
C|---------------------------------------------------------------------------|

Chorus Cont'd:
D|12-------12-------12-------12-------12~-------|
A|---16-16----16-16----16-16----16-16-----------|
F|----------------------------------------------|
C|----------------------------------------------|
G|----------------------------------------------|
C|----------------------------------------------|

Post Chorus:  "We watched the sky..."
D|-0-0-10p0-3p0-2p0-0-10p0-3p0-0h2-0-10p0-3p0-0h2-8p7-----------0------------|
A|----------------------------------------------------8p7---7-8--------------|
F|--------------------------------------------------------9------------------|
C|---------------------------------------------------------------------------|
G|---------------------------------------------------------------------------|
C|---------------------------------------------------------------------------|

Post Chorus Cont'd:  "We dug the body up..."
D|---------------------------------------------------------------------------|
A|---------------------------------------------------------------------------|
F|-9------------9------------9-------------9--------------5>---7>---9-9-9----|
C|---9-7-9-7-9----9-7-9-7-9----9-7-----------9-7----------5>---7>---x-x-x----|
G|---------------------------------10-9-7--------10-9-10--3>---5>---7-7-7----|
C|---------------------------------------------------------------------------|

Post Chorus Cont'd:
D|---------------------------------------------------------------------------|
A|---------------------------------------------------------------------------|
F|9-9-9--11-11-11--11-11-11--12-12-12--12-12-12--12x-------------------------|
C|x-x-x---x--x--x---x--x--x---x--x--x---x--x--x---x--------------------------|
G|7-7-7---9--9--9---9--9--9--10-10-10--10-10-10--10x-------------------------|
C|---------------------------------------------------------------------------|

Bridge:  "For centuries..."
D|---------------------------------------------------------------------------|
A|---------------------------------------------------------------------------|
F|------7>---5>-------------7>---5>---7>-------------------------------------|
C|-2>---7>---5>---7>---2>---7>---5>---7>-------------------------------------|
G|-2>---5>---3>---7>---2>---5>---3>---5>-------------------------------------|
C|-2>-------------7>---2>----------------------------------------------------|

Outro:  (repeat a lot)                         End on:
D|-t12p3p0-t10p3p0-t12p3p0-t10p3p0-t12p3p0h3-|----------12v~-----------------|
A|-------------------------------------------|-------------------------------|
F|-------------------------------------------|-------------------------------|
C|-------------------------------------------|-------------------------------|
G|-------------------------------------------|-------------------------------|
C|-------------------------------------------|-------------------------------|

If you have any questions, e-mail me.





Comments


Popular Thrice tabs & chords
All That's Left Bass Tabs
Dust Of Nations Chords
Flags Of Dawn 1 Chords
Moving Mountains 2 Chords
The Lion And The Wolf Chords
The Weight Chords
At The Last Tabs
Kill Me Quickly 1 Tabs
The Sky Is Falling Tabs
Open Water Ukulele


Song lyrics



↑ Back to top | Tablatures and chords are parodies/interpretations of the original songs. You may use it for private study, scholarship, research or language learning purposes only
© 2014 AZChords.com Contact us | Privacy policy | DMCA | Add/correct tabs | Request tabs | Top 50 tabs