» » »

Three Doors Down, When I'm Gone Bass tabs (ver.1)

Artists:  A B C D E F G H I J K L M N O P Q R S T U V W X Y Z # 

When I'm Gone Bass tabs (ver.1)

Three Doors Down Tabs
 Rating:
4/5 (4 votes)
When I'm Gone lessons Tabs too difficult? Try these video lessons and learn fast
                ~ = hold the note

Bass comes in at 00:12 seconds

Intro
G-------------------------|
D-------------------------|
A-----------0-2-3-5-3-2---|
E-----------------------3-|


Verse       {Play 2 times}
G-----------------------------------------|
D-----------------------------------------|
A-----------3-3-------------------3-3-----|
E----5~----------3~--------5~----------3~-|


Pre-Chorus  {Play 2 times}
G-----------------------------------------|
D-----------------------------------------|
A---------2h3----5~--------2h3------------|
E----5-----------------5------------3~----|


Chorus	    {Play 4 times}
G-----------------------------------------|
D-----------------------------------------|
A---------------2h3-2------5-5------2h3-2-|
E----5-5---5---------------------3--------|

Verse  2x

Chorus 2x

First Part of Break {Play 2 times}
G-----------------------------------------|
D-----------------------------------------|
A---0--2h3-3h5-5h7-5---0-2h3-3h5-3-2------|
E-------------------------------------3---|

2nd time end on
G-------|
D-------|
A--0~---|
E-------|

No Bass from 2:36-2:47

Second Part of Break {Play 4 times}
G-----------------------------------------|
D-----------------------------------------|
A---------------2h3-2------5-5------2h3-2-|
E----5-5---5---------------------3--------|

Chorus 4x

Verse  4x

End Song on
G---------
D---------
A---------
E-----5~--
            
Submit corrections

comments powered by Disqus
↑ Back to top | Three Doors Down Bass for When I'm Gone. Lyrics for acoustic guitar and electric guitar. Tablatures and chords are parodies/interpretations of the original songs. You may use it for private study, scholarship, research or language learning purposes only