» » »

Three Doors Down, Smack Bass tabs (ver.1)

Artists:  A B C D E F G H I J K L M N O P Q R S T U V W X Y Z # 

Smack Bass tabs (ver.1)

Three Doors Down Tabs
 Rating:
4/5 (4 votes)
Smack lessons Tabs too difficult? Try these video lessons and learn fast
                Intro
e|----------------|--------------|
B|----------------|--------------|
G|----------------|--------------|
D|----------------|--------------|
A|----------------|--------------|
E|7-7---0---0-0---|3-3---5--5-5--|

Verse
e|----------------|--------------------|
B|----------------|--------------------|
G|----------------|--------------------| x8
D|----------------|--------------------|
A|--------5-5---5-|---------9--9--8--8-|
E|7-7---7---------|5-5---5-------------|
  1e&a2e&a3e&a4e&a 1e&a2e&a3 e& a4 e& a
Chorus
e|----------------|----------------|
B|----------------|----------------|
G|----------------|----------------| x4
D|----------------|----------------|
A|----------------|----------------|
E|7---7---0---0---|3---3---5---5---|
  1e&a2e&a3e&a4e&a 1e&a2e&a3e&a4e&a
Verse
e|----------------|--------------------|
B|----------------|--------------------|
G|----------------|--------------------| x8
D|----------------|--------------------|
A|--------5-5---5-|---------9--9--8--8-|
E|7-7---7---------|5-5---5-------------|
  1e&a2e&a3e&a4e&a 1e&a2e&a3 e& a4 e& a
Chorus
e|----------------|----------------|
B|----------------|----------------|
G|----------------|----------------| x4
D|----------------|----------------|
A|----------------|----------------|
E|7---7---0---0---|3---3---5---5---|
  1e&a2e&a3e&a4e&a 1e&a2e&a3e&a4e&a
Bridge
e|----------------|----------------|
B|----------------|----------------|
G|----------------|----------------| x4
D|----------------|----------------|
A|----------------|----------------|
E|7-----7---8-----|7-----7---5-----|
  1e&a2e&a3e&a4e&a 1e&a2e&a3e&a4e&a

Verse
e|----------------|--------------------|
B|----------------|--------------------|
G|----------------|--------------------| x8
D|----------------|--------------------|
A|--------5-5---5-|---------9--9--8--8-|
E|7-7---7---------|5-5---5-------------|
            
Submit corrections

comments powered by Disqus
↑ Back to top | Three Doors Down Bass for Smack. Lyrics for acoustic guitar and electric guitar. Tablatures and chords are parodies/interpretations of the original songs. You may use it for private study, scholarship, research or language learning purposes only