» » »

Kryptonite - Bass tabs (ver.3)

Artists:  A B C D E F G H I J K L M N O P Q R S T U V W X Y Z # 

Kryptonite - Bass tabs (ver.3)

Three Doors Down
Rating:
0/5 (0 votes)

Tabs too difficult? Try these video lessons and learn fast.
                (1)
The only reason i'm tabbing this part out is that i get bored playing the same thing
over and over again, so here is the guitar part transcribed for bass.
Enjoy =)



Verse

G-----4-7-4------------0----2-4------------------
D---4-------4-5------0----2----------------------
A-2----------------2----0------------------------
E----------------3-------------------------------

Chorus consists of:

Verse x1 then
 
    Bm              E      F#
G-----4-7-4--------------------------------------
D---4-------4-5------2-------4-------------------
A-2----------------2---2---4---4-----------------
E----------------0-------2-----------------------
            
Tabs too difficult? Try these video lessons and learn fast.




comments powered by Disqus
↑ Back to top | Tablatures and chords are parodies/interpretations of the original songs. You may use it for private study, scholarship, research or language learning purposes only