» » »

Three Doors Down, Be Like That Tabs (ver.1)

Artists:  A B C D E F G H I J K L M N O P Q R S T U V W X Y Z # 

Be Like That Tabs (ver.1)

Three Doors Down Tabs
Rating:
0/5 (0 votes)
Be Like That lessons Tabs too difficult? Try these video lessons and learn fast
                Tuning: Standard

Intro/Verse:


e|-----3-------0--------0-------0---------------------
B|------3-----3-3------3-3-----3-3--------------------
G|-------0---2---2----0---0---0---0-------------------
D|---0----0-0-----0--2-------2------------------------
A|--2---------------2-------3-------------------------
E|-3--------------------------------------------------

Verse
________________________________________________________________________

e|-2---2---3---3--------------------------------------
B|-2---3---3---3--------------------------------------
G|-0---2---0---0--------------------------------------
D|-0---0---2---2--------------------------------------
A|-2---2---3------------------------------------------
E|-3--------------------------------------------------

Chorus:
_________________________________________________________________________

e|-----3-------0--------0-------0---------------------
B|------3-----3-3------3-3-----3-3--------------------
G|-------0---2---2----0---0---0---0-------------------
D|---0----0-0-----0--2-------2------------------------
A|--2---------------2-------3-------------------------
E|-3--------------------------------------------------

___________________________________________________________________________

e|-2---2---3---3--------------------------------------
B|-2---3---3---3--------------------------------------
G|-0---2---0---0--------------------------------------
D|-0---0---2---2--------------------------------------
A|-2---2---3------------------------------------------
E|-3--------------------------------------------------


___________________________________________________________________________

e|-----3-------0--------0-------0---------------------
B|------3-----3-3------3-3-----3-3--------------------
G|-------0---2---2----0---0---0---0-------------------
D|---0----0-0-----0--2-------2------------------------
A|--2---------------2-------3-------------------------
E|-3--------------------------------------------------


____________________________________________________________________________

e|-2---2---3---3--------------------------------------
B|-2---3---3---3--------------------------------------
G|-0---2---0---0--------------------------------------
D|-0---0---2---2--------------------------------------
A|-2---2---3------------------------------------------
E|-3--------------------------------------------------




By Tyler (Oak182) Redmond
            

comments powered by Disqus
↑ Back to top | Three Doors Down Tabs for Be Like That. Lyrics for acoustic guitar and electric guitar. Tablatures and chords are parodies/interpretations of the original songs. You may use it for private study, scholarship, research or language learning purposes only