>
 >
Riot

Riot Guitar Tabs

Three Days Grace - Riot chords, tabs, tablatures, lyrics

Guitar lessons | Add/correct | Request | Top 50 tabs Artists:  A B C D E F G H I J K L M N O P Q R S T U V W X Y Z 0-9

Riot Guitar Tabs – Three Days Grace

CD, Sheet music, Poster

Do you like Riot? Share with your friends now
Bass TabsBass Tabs v2Bass Tabs v3ChordsDrum TabsTabsTabs v2Tabs v3Tabs v4Ukulele
Three Days Grace - "Riot"


A different, but awesome song, by Three Days Grace. The chorus lyrics can get a little 
but the verse, bridge, and the guitar riffs are just awesome.

Tuning: Drop C

Note: I tried to time guitar 1 and guitar 2 as close as I could

Intro:
|---------------------------------------------------------------|
|---------------------------------------------------------------|
|---------------------------------------------------------------|
|-----------8-7-5-7-5-----------5-7-8-7-5---5-7-----------------|
|-555-8-7-5-----------8---555-8-----------8---------------------|
|---------------------------------------------------------------|x1
pm... . . . . . . . . .   ... . . . . . . . . .

|---------------------------------------------------------------|
|---------------------------------------------------------------|
|---------------------------------------------------------------|
|-----------8-7-5-7-5-----------5-7-8-7-------------------------|
|-555-8-7-5-----------8---555-8---------------------------------|
|---------------------------------------------------------------|x1
pm... . . . . . . . . .   ...


Verse:
Guitar 1:
|---------------------------------------------------------------|
|---------------------------------------------------------------|
|---------------------------------------------------------------|
|-----------8-7-5-7-5-----------5-7-8-7-5---5-7-----------------|
|-555-8-7-5-----------8---555-8-----------8---------------------|
|---------------------------------------------------------------|x1
pm... . . . . . . . . .   ... . . . . . . . . .

Guitar 2:
|---------------------------------------------------------------|
|---------------------------------------------------------------|
|---------------------------------------------------------------|
|-0~~~--------------------3~~~----------------------------------|
|-0~~~--------------------3~~~----------------------------------|
|-0~~~--------------------3~~~----------------------------------|x1

====================
Guitar 1:
|---------------------------------------------------------------|
|---------------------------------------------------------------|
|---------------------------------------------------------------|
|-----------8-7-5-7-5-----------5-7-8-7~------------------------|
|-555-8-7-5-----------8---555-8---------------------------------|
|---------------------------------------------------------------|x1
pm... . . .     . . . .   ...

Guitar 2:
|---------------------------------------------------------------|
|---------------------------------------------------------------|
|---------------------------------------------------------------|
|-8~~~--------------------8~~~----7~~~--------------------------|
|-8~~~--------------------8~~~----7~~~--------------------------|
|-8~~~--------------------8~~~----7~~~--------------------------|x1

whole verse x3


Chorus 1:
|---------------------------------------------------------------|
|---------------------------------------------------------------|
|---------------------------------------------------------------|
|-0--3-0-8-7---03-0-8-7--0--3-0-8-7--5--5-5-10-10-10--12--------|
|-0--3-0-8-7---03-0-8-7--0--3-0-8-7--5--5-5-10-10-10--12--------|
|-0--3-0-8-7---03-0-8-7--0--3-0-8-7--5--5-5-10-10-10--12--------|x1

|---------------------------------------------------------------|
|---------------------------------------------------------------|
|---------------------------------------------------------------|
|-0--3-0-8-7---03-0-8-7--0--3-0-8-7--5--5-5---------------------|
|-0--3-0-8-7---03-0-8-7--0--3-0-8-7--5--5-5---------------------|
|-0--3-0-8-7---03-0-8-7--0--3-0-8-7--5--5-5--8-7-5-7-5-3--------|x1
pm                                           . . . . . .


Verse 2: Same as verse 1 (x4)


Chorus 2:
|---------------------------------------------------------------|
|---------------------------------------------------------------|
|---------------------------------------------------------------|
|-0--3-0-8-7---03-0-8-7--0--3-0-8-7--5--5-5-10-10-10--12--------|
|-0--3-0-8-7---03-0-8-7--0--3-0-8-7--5--5-5-10-10-10--12--------|
|-0--3-0-8-7---03-0-8-7--0--3-0-8-7--5--5-5-10-10-10--12--------|x2

|---------|
|---------|
|---------|
|-0~~~~---|
|-0~~~~---|
|-0~~~~---|x1


Breakdown:
|---------------------------------------------------------------|
|---------------------------------------------------------------|
|---------------------------------------------------------------|
|---------------------------------------------------------------|
|----------6-5-3-5-3-5----------------6-5-3-5-------------------|
|-555-8-55-------------(x3)--555-8-55---------(x1)--------------|
pm... . .. . . . . . .       ... . .. . . . .

|---------------------------------------------------------------|
|---------------------------------------------------------------|
|---------------------------------------------------------------|
|----------8----7---5-------------------------------------------|
|-555-8-55---55---5----(x4)-------------------------------------|
|---------------------------------------------------------------|
pm... . .. . .. . . .

|---------------------------------------------------------------|
|---10's--------------------------------------------------------|
|----V----------------------------------------------------------|
|----------------13------12------10--------------------13-----12|
|-101010-13-1010----1010----1010---(x3)-101010-13-1010----1010--|(x1)
|---------------------------------------------------------------|
pm...... .. .... .. .... .. .... ..     ...... .. .... .. ......


Bridge:
Guitar 1:
|-10~~~---------------------------------------------------------|
|---------10~~~---10b11~~r10------------------------------------|
|------------------------------10~~~----------------------------|
|------------------------------------12-------------------------|
|---------------------------------------------------------------|
|---------------------------------------7V*---------------------|

Guitar 2:
|---------------------------------------------------------------|
|---------------------------------------------------------------|
|---------------------------------------------------------------|
|-0~~~----3~~~----8~~~---------7-77-----------------------------|
|-0~~~----3~~~----8~~~---------7-77-----------------------------|
|-0~~~----3~~~----8~~~---------7-77-----------------------------|

===============
Guitar 1:
|-10~~~---------------------------------------------------------|
|---------10~~~---10b11-<-hold----------------------------------|
|---------------------------------------------------------------|
|---------------------------------------------------------------|
|---------------------------------------------------------------|
|---------------------------------------------------------------|

Guitar 2:
|---------------------------------------------------------------|
|---------------------------------------------------------------|
|---------------------------------------------------------------|
|-0~~~----3~~~----8---------------------------------------------|
|-0~~~----3~~~----8-<-x18---------------------------------------|
|-0~~~----3~~~----8---------------------------------------------|
pm                .


Chorus 3: ( after riff using pedal effect)
|---------------------------------------------------------------|
|---------------------------------------------------------------|
|---------------------------------------------------------------|
|-0--3-0-8-7---03-0-8-7--0--3-0-8-7--5--5-5-10-10-10--12--------|
|-0--3-0-8-7---03-0-8-7--0--3-0-8-7--5--5-5-10-10-10--12--------|
|-0--3-0-8-7---03-0-8-7--0--3-0-8-7--5--5-5-10-10-10--12--------|x3


Outro:
Guitar 1:
|-10~~~---------------------------------------------------------|
|------------10~~~------10b11~~r10------------------------------|
|-----------------------------------10~~~-----------------------|
|-------------------------------------------12~~~~--------------|
|---------------------------------------------------------------|
|---------------------------------------------------------------|x1

Guitar 2:
|---------------------------------------------------------------|
|---------------------------------------------------------------|
|---------------------------------------------------------------|
|-0--3-0-8-7---03-0-8-7--0--3-0-8-7--5--5-5-10-10-10--12--0~~~~-|
|-0--3-0-8-7---03-0-8-7--0--3-0-8-7--5--5-5-10-10-10--12--0~~~~-|
|-0--3-0-8-7---03-0-8-7--0--3-0-8-7--5--5-5-10-10-10--12--0~~~~-|x1


 ... tell me how that freaking sounds, lol





Comments


Popular Three Days Grace tabs & chords
Gone Forever Chords
Over And Over Chords
Burn Drum Tabs
Last To Know Drum Tabs
(I Hate) Everything About You 1 Tabs
Animal I Have Become 2 Tabs
Gone Forever 2 Tabs
Just Like You 1 Tabs
Let It Die 1 Tabs
Running Away Tabs


Song lyrics



↑ Back to top | Tablatures and chords are parodies/interpretations of the original songs. You may use it for private study, scholarship, research or language learning purposes only
© 2014 AZChords.com Contact us | Privacy policy | DMCA | Add/correct tabs | Request tabs | Top 50 tabs