» » »

Burn Tabs (ver.1)

Artists:  A B C D E F G H I J K L M N O P Q R S T U V W X Y Z # 

Burn Tabs (ver.1)

Three Days Grace
Rating:
0/5 (0 votes)

Tabs too difficult? Try these video lessons and learn fast.
                Three Days Grace - Burn
------------------------------------------------------

Here are the basics of the song.  As always, listen to
the song to understand and hear exactly what is going on.
The transcription may not be exact, but I think it's pretty close.
------------------------------------------------------

[Intro]
                                    3x
E|------------------------------------||-------------------------|
B|o----------------------------------o||-------------------------|
G|------------------------------------||-------------------------|
D|------------------------------------||-------------------------|
A|o---3-5---5-3---3-5---5-3---3-5/-6-o||---3-5---5-3---3-5-5\----|
D|--0-----0-----0-----0-----0---------||-0-----0-----0-----------|

    |     |  |    |     |  |   |    |   4x            
E|----------------------------------------||
B|o--------------------------------------o||
G|----------------------------------------||
D|----10-12-12-10---10-12-12-10-10-12-13--||
B|o---10-12-12-10---10-12-12-10-10-12-13-o||
D|--0-10-12-12-10-0-10-12-12-10-10-12-13--||

    | |  |   |    |  |   |    |   3x   | |  |   |    | | | |
E|----------------------------------||---------------------|
B|o--------------------------------o||---------------------|
G|----------------------------------||---------------------|
D|------12-10-10-12-12-10-10-12-13--||-----12-10-10-12\----|
A|o-----12-10-10-12-12-10-10-12-13-o||-----12-10-10-12\----|
D|--0-0-12-10-10-12-12-10-10-12-13--||-0-0-12-10-10-12\----|

[Verse 1 - Guitar Riff 1]
                                 4x
E||------------------|-------------||
B||o-----------------|------------o||
G||--7-7-7-7-7-7-7-7-|-(7)---------||
D||--6-6-6-6-6-6-6-7-|-(7)---------||
A||o-----------------|------------o||
D||------------------|-------------||
I’ll tell you now you can’t win this
’Cause you’re way too slow
I’ll tell you now I’m gonna take this
Did you come here to watch me

[Pre-chorus]
E|----------|------------------|
B|----------|------------------|
G|-5--------|------------------|
D|-5--------|-7-7-7-7-8-7-8-10-|
A|-3--------|-7-7-7-7-8-7-8-10-|
D|-3--------|-7-7-7-7-8-7-8-10-|
Watch me burn. Let it show that

[Chorus]
   |   |  |   |       |     |   |   |        |   | |   |   |   |   |   |
E|----------------|------------------------|-------------|------------------|
B|----------------|------------------------|-------------|------------------|
G|-------------10-|-(10)---10--------------|-------------|------------------|
D|-0--12--7-7--10-|-(10)---10---8-5-5-5-5--|-5-3---3-1---|-7-7-7-7-8-7-8-10-|
A|-0--12--7-7---8-|--(8)----8---8-5-5-5-5--|-5-3---3-1---|-7-7-7-7-8-7-8-10-|
D|-0--12--7-7---8-|--(8)-8----8-8-5-5-5-5--|-5-3---3-1---|-7-7-7-7-8-7-8-10-|
I’m not always hiding
Come all the way down and
Watch me burn, I won’t
Let it show that I’m not
Always flying so on the way down
I’ll watch you burn

[Verse 2 - with Riff 1]
So let me know how just how to 
Take this
’Cause you’re way too cold
So show me how before it breaks me

[Pre-chorus - Same as before]

[Bridge]
E||-------------------------------------||
B||o-----------------------------------o||
G||-------------------------------------||
D||-------------------------------------||
A||o---3-5---5-3---3-5---5-3---3-5/-6--o||
D||--0-----0-----0-----0-----0----------||


    |     |  |    |     |  |   |    | 
E|----------------------------------------||
B|o--------------------------------------o||
G|----------------------------------------||
D|----10-12-12-10---10-12-12-10-10-12-13--||
B|o---10-12-12-10---10-12-12-10-10-12-13-o||
D|--0-10-12-12-10-0-10-12-12-10-10-12-13--||

E||-----------------|--------------------------------------||
B||o----------------|-------------------------------------o||
G||---7-7-7-7-7-7-7-|-9b10==9=9=9=9=9=9=9=9=9=9=9=9=9=9=9--||
D||---6-6-6-6-6-6-7-|--------------------------------------||
A||o----------------|-------------------------------------o||
D||-----------------|--------------------------------------||

E|----------|----------|------|--------------|
B|----------|----------|------|--------------|
G|----------|----------|------|--------------|
D|-3--------|-5--------|-3----|-7-7-7-7-7----|
A|-3--------|-5--------|-3----|-7-7-7-7-7----|
D|-3--------|-5--------|-3----|-7-7-7-7-7----|

[Chorus - Same as before]

[Outro]
E|------------------------------------||
B|o----------------------------------o||
G|------------------------------------||
D|------------------------------------||
A|o---3-5---5-3---3-5---5-3---3-5/-6-o||
D|--0-----0-----0-----0-----0---------||

    |     |  |    |     |  |   |    | 
E|----------------------------------------||
B|o--------------------------------------o||
G|----------------------------------------||
D|----10-12-12-10---10-12-12-10-10-12-13--||
B|o---10-12-12-10---10-12-12-10-10-12-13-o||
D|--0-10-12-12-10-0-10-12-12-10-10-12-13--||

   |     |  |    |     |  |   |    |   |     |  |    |     |  |   |    | 
E|-----------------------------------|--------------------------------------|
B|-----------------------------------|--------------------------------------|
G|-----------------------------------|--------------------------------------|
D|---12-12-10---10-12-12-10-10-12-13-|---10-12-12-10---10-12-12-10-10-12-13-|
B|---12-12-10---10-12-12-10-10-12-13-|---10-12-12-10---10-12-12-10-10-12-13-|
D|---12-12-10-0-10-12-12-10-10-12-13-|-0-10-12-12-10-0-10-12-12-10-10-12-13-|

     | |  |    |     |  |   |    |   4x
E||------------------------------------||
B||o----------------------------------o||
G||------------------------------------||
D||------12-10---10-12-12-10-10-12-13--||
A||o-----12-10---10-12-12-10-10-12-13-o||
D||--0-0-12-10-0-10-12-12-10-10-12-13--||

     |   |  |   |    |  |   |    |   4x
E||-------------------------------------||
B||o-----------------------------------o||
E||-------------------------------------||
D||--------12-10-10-12-12-10-10-12-13---||
A||o-------12-10-10-12-12-10-10-12-13--o||
D||--0-0-0-12-10-10-12-12-10-10-12-13---||
            
Tabs too difficult? Try these video lessons and learn fast.




comments powered by Disqus
↑ Back to top | Tablatures and chords are parodies/interpretations of the original songs. You may use it for private study, scholarship, research or language learning purposes only