» » »

Third Try, My Box Tabs (ver.1)

Artists:  A B C D E F G H I J K L M N O P Q R S T U V W X Y Z # 

My Box Tabs (ver.1)

Third Try Tabs
Rating:
0/5 (0 votes)
Hard to play? Try these video lessons and learn fast.
                Tuning: standard

use acoustic guitar

Intro:
-0----0----0----0----0--
-4----2----0----2----4--
-4----4----4----4----4--
-4----4----4----4----4--
------------------------
------------------------
same for chorus:
-0----0----0----0----0--
-4----2----0----2----4--
-4----4----4----4----4--
-4----4----4----4----4--
-----------------------
------------------------
Bride:
-0----0--
-0----4--
-4----4--
-4----4--
---------
---------

thats the end, pretty easy have fun!
            

comments powered by Disqus
↑ Back to top | Third Try Tabs for My Box. Lyrics for acoustic guitar and electric guitar. Tablatures and chords are parodies/interpretations of the original songs. You may use it for private study, scholarship, research or language learning purposes only