>
 >
Wounded

Wounded Guitar Tabs

Third Eye Blind - Wounded chords, tabs, tablatures, lyrics

Guitar lessons | Add/correct | Request | Top 50 tabs Artists:  A B C D E F G H I J K L M N O P Q R S T U V W X Y Z 0-9

Wounded Guitar Tabs – Third Eye Blind

CD, Sheet music, Poster

Do you like Wounded? Share with your friends now
TabsTabs v2Tabs v3


SongTitle: Wounded

"Blue".  I've been working on this song for a long time, and I think I 
pretty much have it.  This is in an open tuning, so I'm sure that there 
are plenty of ways to play some of the chords, and this is the way that I 
think sounds the best. If you dont like my way, be inventive and find a 
chord that is better than mine! Don't really go by the number of strums 
in the chord, but go by the actual chord and get the strumming pattern 
yourself. If ya have any questions or suggestions, e-mail me at 

*OPEN TUNING*
- D - A - D - E - A - C# -

Notations:
~ = Harmonic
/ = Slide up
\ = Slide down
^ = Half bend

Intro (clean):
C#------------------------~5----~5--------------~5------------
A----------~5---~5-----~5----~5----~5--~5----~5----~5---~5----
E--~5---~5---------~5---------------------~5------------------
D-------------------------------------------------------------
A--~5---------------------------------------------------------
D-------------------------------------------------------------

C#---------------------~5--------------------------~5-----
A---------~5--~5----~5----~5---------~5--~5-----~5----~5--
E--~5--~5--------~5-----------~5--~5--------~5------------
D---------------------------------------------------------
A--~5-----------------------------------------------------
D---------------------------------------------------------

Play this 3x (clean):
C#---------------0--0-----5p0--0--
A-----0--5p0--0--------0----------
E---------------------------------
D---------------------------------
A--0------------------------------
D---------------------------------

Play this the 4th time through:
C#--------------------------------
A------0--5p0--0--7-----7--0--~7--
E--------------------5------------
D---------------------------------
A---0-----------------------------
D---------------------------------

Verse (clean):
C#------12-12-12-13-12--------0--0--0--0----0-0-0-0-0-0-0-0--
A-------0--0--0--0--0---------0--0--0--0----0-0-0-0-0-0-0-0--
E-------10-10-10-10-10--------0--0--0--0----5-5-5-5-5-5-5-5--
D-------0--0--0--0--0---11-11-11-11-11-11---7-7-7-7-7-7-7-7--
A--0-0---(let ring)-----x--x--x--x--x--x----0-0-0-0-0-0-0-0--
D--0-0---(let ring)-----9--9--9--9--9--9----7-7-7-7-7-7-7-7--

The guy who put his hands on you 
Has got nothing to do with me
And the bruises that you feel will heal
And I hope you come around
Cuz we're missing you

You used to speak so easy
Now you're afraid to talk to me
It's like walking with the wounded

Mid-Verse Riff x1 (clean):
C#-0-0-0-0-0-0---0-0-0-0-0-0---0--0--0--0--0--0----0-0-0-0-0-0--
A--7-7-7-7-7-7---0-0-0-0-0-0---0--0--0--0--0--0----0-0-0-0-0-0--
E--0-0-0-0-0-0---7-7-7-7-7-7---9--9--9--9--9--9----5-5-5-5-5-5--
D--7-7-7-7-7-7---9-9-9-9-9-9---11-11-11-11-11-11---7-7-7-7-7-7--
A--0-0-0-0-0-0---x-x-x-x-x-x---x--x--x--x--x--x----0-0-0-0-0-0--
D--7-7-7-7-7-7---9-9-9-9-9-9---11-11-11-11-11-11---7-7-7-7-7-7--

Carrying that weight way too far
Concrete pulled ya down so hard
Out there with the wounded
We're missing you

Verse 2 (play riff 1x):
Well I never claimed to understand what happens after dark
But my fingers catch those sparks at the thought of
Touching you
When you're wounded

Pre-Chorus riff x1 (with distortion):
C#--0--0-0--0--0--0---0-0-0-0--0-0-0-0-- 
A---0--0-0--0--0--0---0-0-0-0--0-0-0-0-- 
E---x--x/x--x--x--x---0-0-0-0--0-0-0-0-- 
D---9--7/9--12-12-12--7-7-7-7--7-7-7-7--  
A---x--x/x--x--x--x---0-0-0-0--0-0-0-0-- 
D---9--7/9--12-12-12--7-7-7-7--7-7-7-7--  

C#--0-0-0--x--0-0-0-0-0--x--0-0-0-0-0--0-0-0-0-0--
A---0-0-0--x--0-0-0-0-0--x--0-0-0-0-0--0-0-0-0-0--
E---3-3-3--x--7-7-7-7-7--x--0-0-0-0-0--0-0-0-0-0--
D---5-5-5--x--9-9-9-9-9--x--7-7-7-7-7--7-7-7-7-7--
A---x-x-x--x--x-x-x-x-x--x--0-0-0-0-0--0-0-0-0-0--
D---5-5-5--x--9-9-9-9-9--x--7-7-7-7-7--7-7-7-7-7--

Stephan screams here w/echo behind it and then goes right into the 
chorus, seen here and played x4:

C#--0-0-0-0-0-0---x-x-x-x-6-5-------0-0-0-0-0-0-0-0-0-0---------
A---7-7-7-7-9-7---5-5-5-5-5-5-------0-0-0-0-0-0-0-0-0-0---------
E---0-0-0-0-0-0---0-0-0-0-0-0-------0-0-0-0-0-0-0-0-0-0---------
D---7-7-7-7-7-7---5-5-5-5-5-5-------0-0-0-0-0h7-7-7-7-7--5-5-5--
A---0-0-0-0-0-0---x-x-x-x-x-x---0-0-0-0-0-0-0-0-0-0-0-0--5-5-5--
D---7-7-7-7-7-7---5-5-5-5-5-5---0-0-0-0-0-0-0h7-7-7-7-7--5-5-5--

Well let me break it down till I force the issue
We miss your face, ya know I wish you 
Would come back down to the Dalva Bar, you tell em
"That's just my battle scar!"
I wanna kiss you, and knock em down like we used to
You're the marigold
Till you're walkin down shakin that a** again 
And then you walk on baby walk on walk on (on and on)
You're an angel in the pit with her hands in the air
And we're missing you

Verse x3 (clean):
Now it's fall, and your shoulders get tighter
Nervous flicks on the lighter, boots
Your pissed off poets, your womens groups
And the friends with you, we should have known this fool
Well I guess we missed the mark
Still my fingers catch those sparks at the thought of
Touching you 
Now you're wounded

*Play Pre-Chorus riff here x1 (with distortion)*

*Then, Play Chorus riff here x6 (with distortion)* 

Lemme break it down till i force the issue
You never come around and you know we miss you
Well nobody took your pride away
That's something people say
Back down the bully to the back of the bus
Cause it's time for them to be scared of us
Till you're yellin, how we living cause you got the ball
Then you rock on baby rock on you rock on (on and on)
You're a summertime hottie with her socks in the air
Screamin, "I don't care baby, I don't care! NOOOO!"

You say you don't know, You say you can't grow
(You're the marigold)
All I know is we're missing you, you   x2

Pre-Outro solo (with distortion):
C#----------^11-^11-^11-^11----------13---13/17--^17---17/12--10-
A-----------------------------14p12-------------(up &------------
E---12--12---------------------------------------down)-----------
D----------------------------------------------------------------
A----------------------------------------------------------------
D----------------------------------------------------------------

End chords x4 (with distortion):
C#--0-0-0-0--x--0-0-0--
A---7-7-7-7--x--0-0-0--
E---0-0-0-0--x--3-3-3--
D---7-7-7-7--x--5-5-5--
A---0-0-0-0--x--x-x-x--
D---7-7-7-7--x--5-5-5--

Subtle Solo during end chords (with distortion):
C#--------12----------12-----------12-----------12------------
A---12-14-----10-12-14----10-12-14-----10-12-14----14--10-12--
E-------------------------------------------------------------
D-------------------------------------------------------------
A-------------------------------------------------------------
D-------------------------------------------------------------

End:
Show up
Show up wounded
Show up
Show up wounded

Outro chords (with distortion):
C#-0-0-0---0-0-0---0-0-0---0-0-0--
A--7-7-7---7-7-7---7-7-7---7-7-7--
E--0-0-0---0-0-0---0-0-0---0-0-0--
D--7-7-7---7-7-7---7-7-7---7-7-7--
A--0-0-0---0-0-0---0-0-0---0-0-0--
D--7-7-7---7-7-7---7-7-7---7-7-7--

Outro riff first 3 times (clean):
C#------------0--0----5p0--0--
A-----5p0--0--------0---------
E-----------------------------
D-----------------------------
A--0--------------------------
D-----------------------------

4th time (clean):
C#----------------0--
A------0--5p0--0-----
E--------------------
D--------------------
A---0----------------
D--------------------

Ending chord (clean, a chorus sounds cool):
C#--~12---
A---~12---
E---~12---
D---~12---
A---~12---
D---~12---
 (upstroke)

ThE EnD!!





Comments


Popular Third Eye Blind tabs & chords
Alright Caroline Chords
The Background Chords
1000 Julys Tabs
Blinded Tabs
Burning Man Tabs
Darwin Tabs
Jumper Tabs
The Background Tabs
Losing A Whole Year Ukulele
New Girl Ukulele


Song lyrics



↑ Back to top | Tablatures and chords are parodies/interpretations of the original songs. You may use it for private study, scholarship, research or language learning purposes only
© 2014 AZChords.com Contact us | Privacy policy | DMCA | Add/correct tabs | Request tabs | Top 50 tabs