» » »

God Of Wonders Tabs (ver.1)

Artists:  A B C D E F G H I J K L M N O P Q R S T U V W X Y Z # 

God Of Wonders Tabs (ver.1)

Third Day
Rating:
0/5 (0 votes)

Hard to play? Try these video lessons and learn fast.
                A little message from rodney.

This song expires me alot the way they sing the way they mean it, ''he is the lord of all creation of heaven and earth of water earth and sky''.
I hope you enjoy this song god bless you.

I tooken a long time to figure out the song so bare with me thank you.

intro


e--3---3---3-------------------
b--3---3---3-------------------
g--2---0---0-------------------
d--0---2---2-------------------
a--0---2---3-------------------
e--0---0---0-------------------


chours

god of wonders beyond our galaxcy you are holy, holy


--3-------2------3-------3-------
--3-------3------3-------3-------
--0-------2------0-------0-------
--0-------0------2-------2-------
--2-------0------2-------3-------
--3-------0------0-------0-------


                   
Lord of all creation of water earth and sky

heavens are your tabanecle glory to lord on high

chours

god of wonders beyond our galaxy you are holy, holy unerverse declears your majesty
you are holy , holy...........................................................................................................................................................................................................................................................
            
Hard to play? Try these video lessons and learn fast. | Correct




comments powered by Disqus
↑ Back to top | Tablatures and chords are parodies/interpretations of the original songs. You may use it for private study, scholarship, research or language learning purposes only