» » »

Thin Lizzy, Are You Ready? Tabs (ver.1)

Artists:  A B C D E F G H I J K L M N O P Q R S T U V W X Y Z # 

Are You Ready? Tabs (ver.1)

Thin Lizzy Tabs
 Rating:
4/5 (4 votes)
Are You Ready? lessons Tabs too difficult? Try these video lessons and learn fast
                Are you Ready
THin Lizzy


   Intro

e|--------------------------------------------|
B|---------------------------3----------------|
G|--9--7---------------------0----------5--5--|
D|--9+-7---------------------0----------5--5--|
A|--7--5-------0--3--2---0---0-------0--3--3--|
E|---------------------------3----------------|

   A5       D5  C5

e|-------------------|
B|-------------------|
G|-2--------7----5---|
D|-2--12x---7----5---| Verse 1 part 1
A|-0--------5----3---|
E|-------------------|

   D5     C5

e|-----------------|
B|-----------------|
G|-7-------5-------| Verse part 2
D|-7--12x--5---2X--|
A|-5-------3-------|
E|-----------------|


Verse 1

are you ready to rock, Are you ready to rip it up
Know what im talkin bout,  are you ready to give it up   Verse 1 Part 1

Are you ready to dance, are you ready to hit the floor  verse part 2

Arrgh  Are you ready part 1

C5         D5

Get ready  Ready


e|--------------------------------------------------------------------------|
B|-5---3------3-------------------------------------------------------------|
G|---------5-----4-------------5-----7---5-- Part after verse go to verse 2-|
D|------------------5-------5--------7---5----------------------------------|
A|-----------------------7-----------5---3----------------------------------|

Verse 2

Are you ready to beat it up, Ready to take it
Im going out and break it up,going out to break it up

Are you ready to rock, are you ready to hit the floor,

are you ready , get reay, ready   part after verse then solo

   SOLO
                         V*******
e|--------------------------------------------------------------------------|
B|--8 B10---8B10---8B10------------8B10---8B10---------5---8^5--------5--8--|
G|-----------------------------------------------5^7------------7B9---------|
D|--------------------------------------------------------------------------|
A|--------------------------------------------------------------------------|
E|--------------------------------------------------------------------------|

e|--------------------------------------------------------------------------|
B|--5------5---8^5------5--8^5----------8^5--------5--8--------8B10---------|
G|----7B9----------7B9-----------7B9---------7B9----------7B9---------------|
D|--------------------------------------------------------------------------|
A|--------------------------------------------------------------------------|
E|--------------------------------------------------------------------------|
                                      *******V         V******
e|-------------------------------------------------------------10-------------|
B|-----------------------------------------------13B15---------------13/15----|
G|----------------------------------------------------------------------------|
D|--0---7^10^7-\--------------------------------------------------------------|
A|-----------------7\5\3---0--------------------------------------------------|
E|-----------------------------/--5-------------------------------------------|

e|-13--13---------------------5--8^5------5--8^5------5--8^5-----5--8^5-----|
B|---------13/15----8F--8F------------8F----------8F---------8F-------------|
D|--------------------------------------------------------------------------|
A|--------------------------------------------------------------------------|
E|--------------------------------------------------------------------------|
                                            ******V
e|--5--8^5--8F------5-------5-------------------------------5^8^5-----------|
B|---------------------8--------8---8F--8F---------------5---------5--------|
G|----------------------------------------------------7F--------------7F----|
D|--------------------------------------------------------------------------|
A|--------------------------------------------------------------------------|
E|--------------------------------------------------------------------------|
                                                                      *****V
e|--------------------------------------------------------------------------|
B|--------------------------------------------------------------------------|
G|--7^5---------------------------------------------------5--5------5-------|
D|--------7---7^5-------------------------------------7---------7-----------|
A|-----------------7--5^---3------------3--5---7---7------------------------|
E|----------------------------5----5----------------------------------------|
                            ********VDrum Fill                   *******V
e|--------------------------------------------------------------------------|
B|--5---3------3------------------------------------------------------------|
G|---------5------4-------5------------------7---5--------------------------|
D|-------------------5-----------------------7---5--   3 X------------------|
A|-------------------------------------------5---3--------------3-----------|
E|--------------------------------------------------------------------------|

e|-------------------------------------------------7--10^7--9^7--------7---|
B|--------7^10&7--10^7-----7--10^7--10^7----7--10----------------10^7------|
G|----9-----------------9----------------9---------------------------------|
D|-9-----------------------------------------------------------------------|
A|-------------------------------------------------------------------------|
E|-------------------------------------------------------------------------|

e|-10^7--------------------------------------------------------------------|
B|-------10^7--10^7--------------------------------------------------------|
G|-------------------9^7--9^7-----7----------------------------------------|
D|-----------------------------9------9^7----------------------------------|
A|------------------------------------------9^7^5------5/9---7---5---------|
E|-------------------------------------------------7-----------------7---7-|

e|---------------------------------------------------------------------------|
B|---------------------------------------------------------------------------|
G|----------------------------------------------6---------6--7--9---6--7--9--|F
D|------------------------------------6--7--9-------7--9---------------------|
A|-5---5--7^5---9------------5--7--9-----------------------------------------|
E|-------------------x-x--x--------------------------------------------------|
                     *******V
e|----------------------------7--10^7--9--7-------7--10^7---9^7------7--10^7-|
B|--------------------------------------------9------------------9-----------|
G|-9----7Q----------7Q-------------------------------------------------------|
D|-----------9--7------------------------------------------------------------|
A|---------------------------------------------------------------------------|
E|---------------------------------------------------------------------------|

e|--9^7------7-10^7--9^7------7--10^7--9^7------13^10--12^10---------13^10-----|
B|-------9----------------9------------------9----------------12^10------------|
G|-----------------------------------------------------------------------------|
D|-----------------------------------------------------------------------------|
A|-----------------------------------------------------------------------------|
E|-----------------------------------------------------------------------------|

e|-12^10--12^10----------------------------------------------------------------|
B|---------------x----------12--14---14H---12--15F---15F--12--14--12--14H^12---|
G|------------------11/13------------------------------------------------------|
D|-----------------------------------------------------------------------------|
A|-----------------------------------------------------------------------------|
E|-----------------------------------------------------------------------------|

e|---------------------------------------------------------------7-------------|
B|------12-12---15--15F--15F---12--14H--14H-----------12------------10^7-------|
G|-------------------------------------------14---11---------9F-----------9----|
D|-16--------------------------------------------------------------------------|
A|-----------------------------------------------------------------------------|
E|-----------------------------------------------------------------------------|

e|---------7--10^7-----------------------------------------------------------|
B|-7--10------------10^7--10^7-----------------------------------------------|
G|------------------------------9^7---9^7------------------------------------|
D|-----------------------------------------9---7-----------------------------|
A|-------------------------------------------------9/7----5H-----------------|
E|------------------------------------------------------------7----7---------|
                                                                       *****V
e|-----------------------------------------------------------------------------|
B|--3---1-------1---------3---1--------1----3------1---------------------------|
G|----------4-------2--------------4-----------4-------2-----------------------|
D|--------------------------------------------------------4-----9--------------|
A|--------------------------------------------------------------9-------5------|
E|--------------------------------------------------------------7---7----------|

e|---------------------------------------------------------------------------|
B|---------------------------------------------------------------------------|
G|---------------------------------------------------------------------------|
D|---------------------------------------------------------------------------|
A|---------------------------------------------------------------------------|
E|---------------------------------------------------------------------------|
     /////////////////////
e|---------------------------|
B|---------------------------|
G|---------------------------|
D|-9-----------------------9-|
A|-9-----------------------9-|
E|-7-----------------------7-|
            
Submit corrections

comments powered by Disqus
↑ Back to top | Thin Lizzy Tabs for Are You Ready?. Lyrics for acoustic guitar and electric guitar. Tablatures and chords are parodies/interpretations of the original songs. You may use it for private study, scholarship, research or language learning purposes only