» » »

Got To Hurry Bass tabs (ver.2)

Artists:  A B C D E F G H I J K L M N O P Q R S T U V W X Y Z # 

Got To Hurry Bass tabs (ver.2)

Yardbirds
Rating:
0/5 (0 votes)

Tabs too difficult? Try these video lessons and learn fast.
                GOT TO HURRY (Bassline)
As recorded by The Yardbirds
(From the 2001 Album ULTIMATE!)



 Words and Music by Oscar Rasputin

 

Gtr I (E A D G) - 'Standard'


    Moderately Q=120(8=s8)
   4/4
    Gtr I
     E  E  E  E  E  E  E  E    E  E  E  E  E  E  E  E
||--------------------------|-------------------------|
||o-------------------10-11-|-------------------10-11-|
||o-12-12-12-12-12-12-------|-12-12-12-12-12-12-------|
||--------------------------|-------------------------|


   E  E  E  E  E  E  E  E    E  E  E  E  E  E  E  E
|-------------------------|-------------------------|
|-------------------10-11-|-------------------10-11-|
|-12-12-12-12-12-12-------|-12-12-12-12-12-12-------|
|-------------------------|-------------------------|


   E  E  E  E  E  E  E  E    E  E  E  E  E  E  E  E
|-------------------10-11-|-------------------10-11-|
|-12-12-12-12-12-12-------|-12-12-12-12-12-12-------|
|-------------------------|-------------------------|
|-------------------------|-------------------------|


   E  E  E  E  E  E  E  E    E  E  E  E  E  E  E  E
|-------------------------|-------------------------|
|-------------------10-11-|-------------------10-11-|
|-12-12-12-12-12-12-------|-12-12-12-12-12-12-------|
|-------------------------|-------------------------|


   E  E  E  E  E  E  E  E    E  E  E  E  E  E E E
|-------------------------|-----------------------|
|-------------------------|-----------------------|
|-------------------10-11-|-------------------8-9-|
|-12-12-12-12-12-12-------|-10-10-10-10-10-10-----|


                            1.,2.
   E  E  E  E  E  E  E  E    E  E  E  E  E  E  E  E
|-------------------------|--------------------------||
|-------------------10-11-|-------------------10-11-o||
|-12-12-12-12-12-12-------|-12-12-12-12-12-12-------o||
|-------------------------|--------------------------||


  3.
               |--3--|  |--3--|
   E  E  E  E  E  E  E  E  E  E
|-------------------------------|
|-------------------------------|
|-12-12-12----------------------|
|----------12-12-12-12-12-12-12-|


                    |--3--|                   |--3--|
     E E E  E E  E  E  E  E    E E E  E E  E  E  E  E
||--------------------------|-------------------------|
||o-------------------------|-------------------------|
||o-12-----12---12-12-12-12-|-12-----12---12-12-12-12-|
||--------------------------|-------------------------|


                  |--3--|
   E E E  E E  E  E  E  E    E  E  E  E  E  E  E  E
|-------------------------|-------------------------|
|-------------------------|-------------------------|
|-12-----12---12-12-12-12-|-12-12-12-12-12-12-12-12-|
|-------------------------|-------------------------|


   E  E  E  E  E  E  E  E    E  E  E  E  E  E  E  E
|-------------------10-11-|-------------------10-11--|
|-12-12-12-12-12-12-------|-12-12-12-12-12-12--------|
|-------------------------|--------------------------|
|-------------------------|--------------------------|


   E  E  E  E  E  E  E  E    E  E  E  E  E  E  E  E
|-------------------------|-------------------------|
|-------------------10-11-|-------------------10-11-|
|-12-12-12-12-12-12-------|-12-12-12-12-12-12-------|
|-------------------------|-------------------------|


   E  E  E  E  E  E  E  E    E  E  E  E  E  E E E
|-------------------------|-----------------------|
|-------------------------|-----------------------|
|-------------------10-11-|-------------------8-9-|
|-12-12-12-12-12-12-------|-10-10-10-10-10-10-----|


                            1.
                                         |--3--|  |--3--|
   E  E  E  E  E  E  E  E    E  E  E  E  E  E  E  E  E  E
|-------------------------|--------------------------------||
|-------------------10-11-|-------------------------------o||
|-12-12-12-12-12-12-------|-12-12-12----------------------o||
|-------------------------|----------12-12-12-12-12-12-12--||


  2.
   E  E  E  E  E  E  E  E
|-------------------------||
|-------------------------||
|-12-12-12----------------||
|----------12-12-12-12-12-||


     E  E  E  E  E  E  E  E    E  E  E  E  E  E  E  E
||--------------------10-11-|-------------------10-11-|
||o-12-12-12-12-12-12-------|-12-12-12-12-12-12-------|
||o-------------------------|-------------------------|
||--------------------------|-------------------------|


   E  E  E  E  E  E  E  E    E  E  E  E  E  E  E  E
|-------------------------|--------------------------|
|-------------------10-11-|-------------------10-11--|
|-12-12-12-12-12-12-------|-12-12-12-12-12-12--------|
|-------------------------|--------------------------|


   E  E  E  E  E  E  E  E    E  E  E  E  E  E E E
|-------------------------|-----------------------|
|-------------------------|-----------------------|
|-------------------10-11-|-------------------8-9-|
|-12-12-12-12-12-12-------|-10-10-10-10-10-10-----|


   E  E  E  E  E  E  E  E    E  E  E  E  E  E  E  E
|-------------------------|--------------------------||
|-------------------10-11-|-------------------10-11-o||
|-12-12-12-12-12-12-------|-12-12-12-12-12-12-------o||
|-------------------------|--------------------------||






Duration Legend
---------------
W - whole; H - half; Q - quarter; E - 8th; S - 16th; T - 32nd; X - 64th; a - acciaccatura
+ - note tied to previous; . - note dotted; .. - note double dotted
Uncapitalized letters represent notes that are staccato (1/2 duration)
Irregular groupings are notated above the duration line
Duration letters will always appear directly above the note/fret number it represents the
duration for.  Duration letters with no fret number below them represent rests.  Multi-
bar rests are notated in the form Wxn, where n is the number of bars to rest for.  Low
melody durations appear below the staff

Tablature Legend
----------------
 h   - hammer-on
 p   - pull-off
 b   - bend
 pb  - pre-bend
 r   - bend release (if no number after the r, then release immediately)
 /\  - slide into or out of (from/to "nowhere")
 s   - legato slide
 S   - shift slide
<n> - natural harmonic
[n]  - artificial harmonic
n(n) - tapped harmonic
 ~   - vibrato
 tr  - trill
 T   - tap
 TP  - trem. picking
 PM  - palm muting
\n/  - tremolo bar dip; n = amount to dip
 \n  - tremolo bar down
 n/  - tremolo bar up
/n\  - tremolo bar inverted dip
 =   - hold bend; also acts as connecting device for hammers/pulls
 <> - volume swell (louder/softer)
 x   - on rhythm slash represents muted slash
 o   - on rhythm slash represents single note slash

Misc Legend
-----------
 |  - bar
||  - double bar
||o - repeat start
o|| - repeat end
*|  - double bar (ending)
 :  - bar (freetime)
 $  - Segno
 &  - Coda
Tempo markers - <E/E./Q/Q./H/H.> = BPM(8/16=s8/s16), where s8 = swing 8ths, s16 = swing 16ths
            
Tabs too difficult? Try these video lessons and learn fast.




comments powered by Disqus
↑ Back to top | Tablatures and chords are parodies/interpretations of the original songs. You may use it for private study, scholarship, research or language learning purposes only