» » »

The Xx, Islands Tabs (ver.1)

Artists:  A B C D E F G H I J K L M N O P Q R S T U V W X Y Z # 

Islands Tabs (ver.1)

The Xx Tabs
 Rating:
4.2/5 (34 votes)
Islands lessons Tabs too difficult? Try these video lessons and learn fast
                This song is brilliant, to get it sounding like the record
you need a bit of Reverb so it echoes :)

Intro and Verse 1 - Palm Muted
e|--------------------------------|
B|--------------------------------|
G|---8---6---4---4-----------4----|
D|-6---4---22--22-2---6---4-2-----|
A|------------------44---2--------|
E|--------------------------------|

e|--------------------------------|
B|--------------------------------|
G|---8---11---6---4----------4----|
D|-6---9----44--22----6--6-22-----|
A|------------------44--4---------|
E|--------------------------------|

Chorus - Palm Muted
e|--------------------------------------------------------|
B|---------------4444444444444444-------------------------|
G|11111111111111144444444444444444444444444444444-------4-|
D|222222222222222----------------666666666666666666666666-|
A|-----------------------------------------------4444444--|
E|--------------------------------------------------------|

Verse 2 - Un Muted
e|--------------------------------------------------|
B|--------------------------------------------------|
G|--------------------------------------------------|
D|6-6/9-9/11-----------------6-6\4-4\2--------------|
A|--------------------------------------------------|
E|--------------------------------------------------|x2

Chorus x2

Break - Un Muted
e|-------------------------------------|
B|----4-4-------4-4--------------------|
G|-1---4-4---1---4-4-----4-4------4-4--|
D|2-2-------2-2-------6-6-6-6--6-6-6-6-|
A|-------------------4-4------4-4------|
E|-------------------------------------|

e|---------------------------------------|
B|----4-4------4-4-----------------------|
G|-1---4-4--1---4-4-----4-4-4-4-4-4-4-4--|
D|2-2------2-2-------6-6-6-6-6-6-6-6-6-6-|
A|------------------4-4------------------|
E|---------------------------------------|

Outro
e|----------------------------------------------------------|
B|----------------------------------------------------------|
G|4-4-4-4-4-4-4-4-8-8-8-8-8-8-8-8-4-4-4-4-4-4-4-4-4-4-4-4-4-|
D|-6-6-6-6-6-6-6-6-9-9-9-9-9-9-9-9-6-6-6-6-6-6-6-6-6-6-6-6--|
A|----------------------------------------------------------|
E|----------------------------------------------------------|
            
Submit corrections

comments powered by Disqus
↑ Back to top | The Xx Tabs for Islands. Lyrics for acoustic guitar and electric guitar. Tablatures and chords are parodies/interpretations of the original songs. You may use it for private study, scholarship, research or language learning purposes only