» » »

The World Inferno Friendship Society, We Will Never Run Into One Another On Trains Tabs (ver.1)

Artists:  A B C D E F G H I J K L M N O P Q R S T U V W X Y Z # 

We Will Never Run Into One Another On Trains Tabs (ver.1)

The World Inferno Friendship Society Tabs
 Rating:
4/5 (4 votes)
We Will Never Run Into One Another On Trains lessons Tabs too difficult? Try these video lessons and learn fast
1
                
This is one of the tracks that is only on the Red Eyed Soul vinyl and is very
hard to find on the internet because Infernites like to play this game where they
pretend this song doesn't exist by answering any question about the song with "What is Trains?"

Anyways, this might not be correct.  It was transcribed from accordion/piano/clarinet to 
 So, gimme a break.

Tuning: E A D G B E
Eb: x 6 8 8 8 6
Ab: 4 6 6 5 4 4
Eb/G: 3 x 1 3 x x
Cm: x 3 5 5 4 3
Bb: 6 8 8 7 6 6
Abm: 4 6 6 4 4 4
Fm: 1 3 3 1 1 1
Eb/Bb: 6 6 8 8 8 6
Db: x 4 6 6 6 4
Bbm: x 1 3 3 4 1
Gm: 3 5 5 3 3 3
D: x 5 7 7 7 5


Intro:

Chords\
Eb Ab Eb/G Cm Ab Eb Bb
Eb Abm Eb/G Cm Fm Ab Bb Eb (hold)

Clarinet Riff\
e|--------------------------------3-----4---------------------3-4-6-7-6-7--|
B|---8-9-11-8-11-13-11-13---3-4-6---6-4----4-3----3-3-3h4---4--------------|
G|-8----------------------5------------------------------------------------|
D|-------------------------------------------------------------------------|
A|-------------------------------------------------------------------------|
E|-------------------------------------------------------------------------|

e|---------3-----4----------------|
B|---3-4-6---6-4-----4-6-6-3-3h4--|
G|-5---------------5--------------|
D|--------------------------------|
A|--------------------------------|
E|--------------------------------|

        Eb    Ab   Eb/G
we will never run
Cm        Eb/Bb     Ab     Fm  Bb
into one another on trains
Ab
there will be no chance meetings,
Eb                       Db       Ab
we'll miss each other by minutes.
    Eb         Ab            Eb/G       Cm
the habits and parties which brought us together
Eb/Bb          Ab        Fm    Bb
avoided, grown over, and left.
Fm                     Ab             Eb      Db Cm Bbm Ab
we will never run into one another on trains.

  Eb          Ab                Eb/G          Cm
i wrote you a note saying i was leaving and i left.
     Eb/Bb     Ab      Fm  Bb
it's all yours or mine now
Ab                         Eb
we might never meet again, you know-
                    Db      Ab
it might just never happen.
Db                         Ab
we might never meet again, you know-
                    Eb
it might just never happen.
Fm                     Ab             Eb      Db Cm Bbm Ab
we will never run into one another on trains.

Fm            Cm
don't talk to ghosts
      Fm       Gm             Fm Ab Eb Bb
don't open the window for them
    Fm              Cm            Fm       Gm     Fm    Ab Eb
you don't slow your pace when you see them on the street
       Bb            D                Db             Ab
but if what they say about life after death being so sweet, about how
Gm         Cm       Fm
sweet, how sweet it is then
Eb             Bb
missing you so
  Cm       Bb
I miss you so.

DO INTRO CHORDS/CLARINET PART ONCE

Eb             Ab        Eb/G   Cm
looks like i'm losing my famous sense
   Eb/Bb  Ab       Fm    Bb
my famous sense of humor
Ab                 Eb                    Db
older than i look, younger by far than i feel,
      Ab   Db                 Ab                          Eb
and i feel fine as wine, duty free, aged, clear, pure and concealed.

the two notes play here are F# and Db (AKA 4th fret on D string and 4th fret on A string)

      Eb           Ab       Eb/G         Cm
Miss, tell me your name and where I have been
    Eb/Bb        Ab           Fm   Bb
and where we are where are we now?
Fm                     Ab             Eb      Db Cm Bbm Ab
we will never run into one another on trains.

ACCORDION/ CLARINET RIFFY THINGY:
[NOTE:] I am almost completely sure I am wrong for part of the riff, but in order to 
doing this song with guitar, I found chords to use under the riff.  Here goes.

CHORDS\
Db Ab Eb
Db Ab Eb
Ab Eb Ab Eb
Db Ab Eb
that whole thing x2

RIFF\
e|-------------------------------------------------------------------------|
B|-------------------------------------------------------------------------|
G|-------6-6h8p6-5h6p5---3h5p3----------------6-6h8p6-3h5p3---5-3----------|
D|---3-6---------------6-------6-5-3------3-6---------------6--------------|
A|-4---------------------------------6--4----------------------------------|
E|-------------------------------------------------------------------------|

e|-------------3-----4---4-3------------------------9-9h11p9-6h8p6---------|
B|-----4h6-4h6---6-4---4-----6-4h6p4--------------9----------------9-8-6---|
G|-3h5-------------------------------5-3-------10------------------------8-|
D|------------------------------------------11-----------------------------|
A|-------------------------------------------------------------------------|
E|-------------------------------------------------------------------------|

e|-----------------------------------------3----4--4-3------------|
B|-------9-9-9h11p9-6h8p6-----------4h6-4h6--6-4--4---6-4h6p4-----|
G|----10------------------8------3h5--------------------------5-3-|
D|-11-----------------------10-8----------------------------------|
A|----------------------------------------------------------------|
E|----------------------------------------------------------------|

Eb        Ab        Eb/G       Cm      Eb/Bb Ab Fm Bb
but if we do will i be dressed for the occasion?
Ab                          Eb                       Db          Ab
this thought haunts me dressing or undressing in the morning, it does.
Eb             Ab          Eb/G      Cm       Eb/Bb   Ab    Fm  Bb
Things that we play at are not us, i have not forgot, forgotten.

Ab                         Eb
we might never meet again, you know-
                    Db     Ab
it might just never happen.
Db                         Ab
we might never meet again, you know-
                    Eb
it might just never happen.
Fm                     Ab             Eb     Db Cm Bbm Ab
we will never run into one another on trains.
Fm                     Ab
we will never run into one another on
Eb Abm Eb/G Cm Fm Ab Bb Eb
traaaaaaaaaaaaaaaaaaaaains
            
Submit corrections

comments powered by Disqus
↑ Back to top | The World Inferno Friendship Society Tabs for We Will Never Run Into One Another On Trains. Lyrics for acoustic guitar and electric guitar. 1 Tablatures and chords are parodies/interpretations of the original songs. You may use it for private study, scholarship, research or language learning purposes only