» » »

The World Inferno Friendship Society, Me And The Mad Monkettes Bass tabs (ver.1)

Artists:  A B C D E F G H I J K L M N O P Q R S T U V W X Y Z # 

Me And The Mad Monkettes Bass tabs (ver.1)

The World Inferno Friendship Society Tabs
Rating:
4/5 (1 vote)
Hard to play? Try these video lessons and learn fast.
                World Inferno Friendship Society
Me and the Mad Monkettes
Red Eyed Soul
------------------------------------------|
------------------------------------------|
-----------------------------8-8------8-8-|
10-10-13-13-10-10-13-13-6-6-------6-6-----|

----------------------------------------|
----------------------------------------|
-----8-8-------8-8--------8-8------8-8--|
-8-8-------8-8-------7-7-------7-7------|

------------------------------------------|
------------------------------------------|
-----------------------------8-8------8-8-|
10-10-13-13-10-10-13-13-6-6-------6-6-----|

----------------------------------------|
----------------------------------------|
-----8-8-------8-8--------8-8------8-8--|
-8-8-------8-8-------7-7-------7-7------|
            

comments powered by Disqus
↑ Back to top | The World Inferno Friendship Society Bass for Me And The Mad Monkettes. Lyrics for acoustic guitar and electric guitar. Tablatures and chords are parodies/interpretations of the original songs. You may use it for private study, scholarship, research or language learning purposes only