>
 >
You're All I See

You're All I See Guitar Tabs

The Word Alive - You're All I See chords, tabs, tablatures, lyrics

Guitar lessons | Add/correct | Request | Top 50 tabs Artists:  A B C D E F G H I J K L M N O P Q R S T U V W X Y Z 0-9

You're All I See Guitar Tabs – The Word Alive

CD, Sheet music, Poster

Do you like You're All I See? Share with your friends now
Tabs
Intro 0:00-0:40
D---------------------------------------------------|
A-----------3----------------------3----------------|
D-------3-----3---3------------3-----3--3-----------|
G-----5---5-----5------------5---5-----5------------|
B---------------------------------------------------|
E---------------------------------------------------|

D---------------------------------------------------|
A-----------3----------------------3----------------|
D-------2-----2---2-----------2------2---2----------|
G-----3---3-----3-----------3---3------3------------|
B---------------------------------------------------|
E---------------------------------------------------|

D---------------------------------------------------|
A---------------------------------------------------|
D-----------0---------------------0-----------------|
G-------3-----3---3-----------3-----3---3-----------|
B-----1---1-----1-----------1---1-----1-------------|
E---------------------------------------------------|

Pre-Chorus 0:40-0:55
D---------------------------------------------------|
A---------------------------------------------------|
D---------------------------------------------------|
G-----0---------3---------3---------3---------------|
B-----1(x16)----5(x16)----1(x16)----3(x16)----------|
E---------------------------------------------------|

Chorus 0:55-1:10
D---------------------------------------------------|
A---------------------------------------------------|
D---------------------------------------------------|
G----5---------8---------1---------3----------------|
B----5(x16)----8(x16)----1(x16)----3(x16)-----------|
E----5---------8---------1---------3----------------|

Intro 1:10-1:37
D---------------------------------------------------|
A-----------3----------------------3----------------|
D-------3-----3---3------------3-----3--3-----------|
G-----5---5-----5------------5---5-----5------------|
B---------------------------------------------------|
E---------------------------------------------------|

D---------------------------------------------------|
A-----------3----------------------3----------------|
D-------2-----2---2-----------2------2---2----------|
G-----3---3-----3-----------3---3------3------------|
B---------------------------------------------------|
E---------------------------------------------------|

D---------------------------------------------------|
A---------------------------------------------------|
D-----------0---------------------0-----------------|
G-------3-----3---3-----------3-----3---3-----------|
B-----1---1-----1-----------1---1-----1-------------|
E---------------------------------------------------|

Pre-Chorus 1:37-1:50
D---------------------------------------------------|
A---------------------------------------------------|
D---------------------------------------------------|
G-----0---------3---------3---------3---------------|
B-----1(x16)----5(x16)----1(x16)----3(x16)----------|
E---------------------------------------------------|

Chorus 1:50-2:17
D---------------------------------------------------|
A---------------------------------------------------|
D---------------------------------------------------|
G----5---------8---------1---------3----------------|<--------------|
B----5(x16)----8(x16)----1(x16)----3(x16)-----------| (X2 This Time)|
E----5---------8---------1---------3----------------|<--------------|

Bridge 2:17-2:46
D---------------------------------------------------|
A---------------------------------------------------|
D---------------------------------------------------|
G---------------------------------------------------|
B---------------------------------------------------|
E----3-5-5-5-5-5-3-5-5-5-5-5-3-5-5-5-5-5-5-5-5------| <---(Played x4)

D---------------------------------------------------|
A---------------------------------------------------|
D---------------------------------------------------|
G----3-5-----3-5-----3-5-----0-1--------------------|<-----------|
B----3-5-----3-5-----3-5-----0-1--------------------| (Played x4)
E----3-5-----3-5-----3-5-----0-1--------------------|<-----------|

First Part of Intro 2:46-2:52
D---------------------------------------------------|
A-----------3----------------------3----------------|
D-------3-----3---3------------3-----3--3-----------|
G-----5---5-----5------------5---5-----5------------|
B---------------------------------------------------|
E---------------------------------------------------|

D---------------------------------------------------|
A-----------3----------------------3---------3------|
D-------2-----2---2-----------2------2---2---2------|
G-----3---3-----3-----------3---3------3-----3------|
B---------------------------------------------------|
E---------------------------------------------------|

Chorus 2:52-3:50
D---------------------------------------------------|
A---------------------------------------------------|
D---------------------------------------------------|
G----1---------3------------------------------------|
B----1(x16)----3(x16)-------------------------------|
E----1---------3------------------------------------|

D---------------------------------------------------|
A---------------------------------------------------|
D---------------------------------------------------|
G----5---------8---------1---------3----------------|<--------------|
B----5(x16)----8(x16)----1(x16)----3(x16)-----------| (X2 This Time)|
E----5---------8---------1---------3----------------|<--------------|

D---------------------------------------------------|
A---------------------------------------------------|
D---------------------------------------------------|
G---------------------------------------------------|
B---12-10-8-8\7-7/8-8/10/12-------------------------|
E---------------------------------------------------|





Comments


Popular The Word Alive tabs & chords
2012 Bass Tabs
2012 2 Tabs
Casanova Rodeo Tabs
Consider It MutualIntro Tabs
Epiphany 1 Tabs
How To Build An Empire 2 Tabs
Like Father Like Son Tabs
Mercy Intro Tabs
The Hounds Of Anubis 3 Tabs
The Wretched Tabs


Song lyrics



↑ Back to top | Tablatures and chords are parodies/interpretations of the original songs. You may use it for private study, scholarship, research or language learning purposes only
© 2014 AZChords.com Contact us | Privacy policy | DMCA | Add/correct tabs | Request tabs | Top 50 tabs