>
 >
Wishmaster

Wishmaster Guitar Tabs

The Word Alive - Wishmaster chords, tabs, tablatures, lyrics

Guitar lessons | Add/correct | Request | Top 50 tabs Artists:  A B C D E F G H I J K L M N O P Q R S T U V W X Y Z 0-9

Wishmaster Guitar Tabs – The Word Alive

CD, Sheet music, Poster

Do you like Wishmaster? Share with your friends now
Tabs
----------------------------------------------------------------------------
                              Wishmaster
                            The Word Alive
----------------------------------------------------------------------------

The Word Alive is growing beyond words. The advanced techniques they use in this song 
prove it, especially in the breakdowns. They really are “wishmaster”. Enjoy!

Username: dkm817 (same on X box live)

Guitar 1 Rhythmic (A# F  A# D# G  C  )
Guitar 2 Lead     (A# F  A# D# G  C  )

Tab Guide...
===================================================================
(end of measures)

===================================================================
===================================================================
(end of parts)

===================================================================
===================================================================
===================================================================
(end of song)
(If there is a “continued” it is because the numbers could not
fit on 1 line or connecting times played.)


Intro

(x4)

Guitar 1 (Fade In)
C -----------------------------------------------------------------|
G -----------------------------------------------------------------|
D#-----------------------------------------------------------------|
A#-2---2---2-2-2-2-2---------------2---2-2-2---2-2-2---2---2-2-2-2-|
F -2---2---2-2-2-2-2---------------2---2-2-2---2-2-2---2---2-2-2-2-|
A#-2---2---2-2-2-2-2---------------2---2-2-2---2-2-2---2---2-2-2-2-|
Pm .   .   . . . . .               .   . . .   . . .   .   . . . .

Guitar 2 (Fade In)
C -----------------------------------------------------------------|
G -5---5-----------6---6---5---5-----------6---6---5---5-----------|
D#-x---x---5---4---x---x---x---x---5---4---x---x---x---x---5---4---|
A#-2---2---x---x---3---3---2---2---x---x---3---3---2---2---x---x---|
F ---------3---2-------------------3---2-------------------3---2---|
A#-----------------------------------------------------------------|

===================================================================

Guitar 1
C -----------------------------------------------------------------|
G -----------------------------------------------------------------|
D#-----------------------------------------------------------------|
A#-----2---2-2-2-2-2---------------2---2-2-2---2-2-2---2---2-2-2-2-|
F -----2---2-2-2-2-2---------------2---2-2-2---2-2-2---2---2-2-2-2-|
A#-----2---2-2-2-2-2---------------2---2-2-2---2-2-2---2---2-2-2-2-|
Pm     .   . . . . .               .   . . .   . . .   .   . . . .

Guitar 2
C -----------------------------------------------------------------|
G -5---5-----------6---6---5---5-----------6---6---5---5-----------|
D#-x---x---5---4---x---x---x---x---5---4---x---x---x---x---5---4---|
A#-2---2---x---x---3---3---2---2---x---x---3---3---2---2---x---x---|
F ---------3---2-------------------3---2-------------------3---2---|
A#-----------------------------------------------------------------|

===================================================================
===================================================================


Break Off 1

Guitar 1 & 2
C -----------------------------------------------------------------|
G -----------------------------------------------------------------|
D#-----------------------------------------------------------------|
A#-----------------------------------------------------------------|
F -----------------------------------------------------------------|
A#-2^\~~~~~~~~~~~~~~~~~~~~~~~~~~~~~~~~~~~~~~~~~~~~~~~~~~~~~~~~~~~~-

===================================================================
===================================================================


Verse 1

Guitar 1
C -----------------------------------------------------------------|
G -----------------------------------------------------------------|
D#-----------------------------------------------------------------|
A#-0---0---0-0-0-0-0---------------0---0-0-0---0---0-0-0-0-0-0-0-0-|
F -0---0---0-0-0-0-0---------------0---0-0-0---0---0-0-0-0-0-0-0-0-|
A#-0---0---0-0-0-0-0---------------0---0-0-0---0---0-0-0-0-0-0-0-0-|
Pm .   .   . . . . .               .   . . .   .   . . . . . . . .

Guitar 2
C -----------------------------------------------------------------|
G -3-----------------------3-----------------------3---------------|
D#---------3---2-------------------3---2-------------------3---2---|
A#-----0-----------1~~~~~~-----0-----------1~~~~~~-----0-----------|
F -----------------------------------------------------------------|
A#-----------------------------------------------------------------|

===================================================================

Guitar 1
C -----------------------------------------------------------------|
G -----------------------------------------------------------------|
D#-----------------------------------------------------------------|
A#-----0---0-0-0-0-0---------------0---0-0-0---0---0-0-0-0-0-0-0-0-|
F -----0---0-0-0-0-0---------------0---0-0-0---0---0-0-0-0-0-0-0-0-|
A#-----0---0-0-0-0-0---------------0---0-0-0---0---0-0-0-0-0-0-0-0-|
Pm     .   . . . . .               .   . . .   .   . . . . . . . .

Guitar 2
C -------------------------------------------------0-1-0-----------|
G -3-----------------------3-----------------------------3-2-------|
D#---------3---2-------------------3---2---------------------3-2-0-|
A#-----0-----------1~~~~~~-----0-----------1~~~~~~-----------------|
F -----------------------------------------------------------------|
A#-----------------------------------------------------------------|

===================================================================

Guitar 1
C -----------------------------------------------------------------|
G -----------------------------------------------------------------|
D#-----------------------------------------------------------------|
A#-0---0---0-0-0-0-0---------------0---0-0-0---0---0-0-0-0-0-0-0-0-|
F -0---0---0-0-0-0-0---------------0---0-0-0---0---0-0-0-0-0-0-0-0-|
A#-0---0---0-0-0-0-0---------------0---0-0-0---0---0-0-0-0-0-0-0-0-|
Pm .   .   . . . . .               .   . . .   .   . . . . . . . .

Guitar 2
C -----------------------------------------------------------------|
G -3-----------------------3-----------------------3---------------|
D#---------3---2-------------------3---2-------------------3---2---|
A#-----0-----------1~~~~~~-----0-----------1~~~~~~-----0-----------|
F -----------------------------------------------------------------|
A#-----------------------------------------------------------------|

===================================================================

Guitar 1
C -----------------------------------------------------------------|
G -----------------------------------------------------------------|
D#-----------------------------------------------------------------|
A#-----0---0-0-0-0-0---------------0---0-0-0---0---0-0-0-0-0-0-0-0-|
F -----0---0-0-0-0-0---------------0---0-0-0---0---0-0-0-0-0-0-0-0-|
A#-----0---0-0-0-0-0---------------0---0-0-0---0---0-0-0-0-0-0-0-0-|
Pm     .   . . . . .               .   . . .   .   . . . . . . . .

Guitar 2
C -------------------------------------------------0-1-0-----------|
G -3-----------------------3-----------------------------3-2~~~~~~-|
D#---------3---2-------------------3---2---------------------------|
A#-----0-----------1~~~~~~-----0-----------1~~~~~~-----------------|
F -----------------------------------------------------------------|
A#-----------------------------------------------------------------|

===================================================================
===================================================================


Verse 2

Guitar 1
C -----------------------------------------------------------------|
G -----------------------------------------------------------------|
D#-----------------------------------------------------------------|
A#-----------------------------------------------------------------|
F -----------------------------------------------------------------|
A#-0-12-0------13--12~~~~~-0-12-0------13--12~~~~~-0-12-0------13--|

Guitar 2
C -----------------------------------------------------------------|
G -10-10-10~~~-11--11~~~~~-8---8~~~~~~-10--10~~~~~-10--10--10--10--|
D#-x--x--x-----x---x-------x---x-------x---x-------x---x---x---x---|
A#-7--7--7~~~~-8---8~~~~~~-5---5~~~~~~-7---7~~~~~~-7---7---7---7---|
F -----------------------------------------------------------------|
A#-----------------------------------------------------------------|

===================================================================

Guitar 1
C -----------------------------------------------------------------|
G -----------------------------------------------------------------|
D#-----------------------------------------------------------------|
A#-----------------------------------------------------------------|
F -------------------------------------------------12------7---8---|
A#-0-12-0------13--12~~~~~-0-12-0------13--12~~~~~-----0-----------|

Guitar 2
C -----------------------------------------------------------------|
G -10-10-10~~~-11--11~~~~~-8---8~~~~~~-10--10~~~~~-----------------|
D#-x--x--x-----x---x-------x---x-------x---x-------10--------------|
A#-7--7--7~~~~-8---8~~~~~~-5---5~~~~~~-7---7~~~~~~-----------------|
F -----------------------------------------------------------------|
A#-----------------------------------------------------0---10--12--|

===================================================================

Guitar 1
C -----------------------------------------------------------------|
G -----------------------------------------------------------------|
D#-----------------------------------------------------------------|
A#-----------------------------------------------------------------|
F -----------------------------------------------------------------|
A#-0-12-0------13--12~~~~~-0-12-0------13--12~~~~~-0-12-0------13--|

Guitar 2
C -----------------------------------------------------------------|
G -10-10-10~~~-11--11~~~~~-8---8~~~~~~-10--10~~~~~-10--10--10--10--|
D#-x--x--x-----x---x-------x---x-------x---x-------x---x---x---x---|
A#-7--7--7~~~~-8---8~~~~~~-5---5~~~~~~-7---7~~~~~~-7---7---7---7---|
F -----------------------------------------------------------------|
A#-----------------------------------------------------------------|

===================================================================

Guitar 1
C -----------------------------------------------------------------|
G -----------------------------------------------------------------|
D#-----------------------------------------------------------------|
A#-------------------------0-0-0-----------------------------------|
F -------------------------0-0-0-----------------------------------|
A#-0-12-0------13--12~~~~~-0-0-0-----------------------------------|
Pm                         . . .

Guitar 2
C -----------------------------------------------------------------|
G -10-10-10~~~-11--11~~~~~-----------------------------------------|
D#-x--x--x-----x---x-----------------------------------------------|
A#-7--7--7~~~~-8---8~~~~~~-0-0-0-----------------------------------|
F -------------------------0-0-0-----------------------------------|
A#-------------------------0-0-0-----------------------------------|
Pm                         . . .

===================================================================
===================================================================


Breakdown 1

Guitar 1 & 2
C -----------------------------------------------------------------|
G -----------------------------------------------------------------|
D#-----------------------------------------------------------------|
A#-0---0---0-0-0-0-0---------------0---0-0-0---0-0-0---0---0-0-0-0-|
F -0---0---0-0-0-0-0---------------0---0-0-0---0-0-0---0---0-0-0-0-|
A#-0---0---0-0-0-0-0---------------0---0-0-0---0-0-0---0---0-0-0-0-|
Pm .   .   . . . . .               .   . . .   . . .   .   . . . .

===================================================================

Guitar 1 & 2
C -----------------------------------------------------------------|
G -----------------------------------------------------------------|
D#-----------------------------------------------------------------|
A#-----0---0-0-0-0-0---x-x-x-x-x-x-0---0-0-0---0-0-0---0---xxxxxxx-|
F -----0---0-0-0-0-0---x-x-x-x-x-x-0---0-0-0---0-0-0---0-----------|
A#-----0---0-0-0-0-0---x-x-x-x-x-x-0---0-0-0---0-0-0---0-----------|
Pm     .   . . . . .               .   . . .   . . .   .

===================================================================

Guitar 1 & 2
C -----------------------------------------------------------------|
G -----------------------------------------------------------------|
D#-----------------------------------------------------------------|
A#-0---0---0-0-0-0-0---------------0---0-0-0---0-0-0---0---0-0-0-0-|
F -0---0---0-0-0-0-0---------------0---0-0-0---0-0-0---0---0-0-0-0-|
A#-0---0---0-0-0-0-0---------------0---0-0-0---0-0-0---0---0-0-0-0-|
Pm .   .   . . . . .               .   . . .   . . .   .   . . . .

===================================================================

Guitar 1 & 2
C -----------------------------------------------------------------|
G -----------------------------------------------------------------|
D#-----------------------------------------------------------------|
A#-----0---0-0-0-0-0---------------0---0-0-0---0---0-0-0-0-0-0-0-0-|
F -----0---0-0-0-0-0---------------0---0-0-0---0---0-0-0-0-0-0-0-0-|
A#-----0---0-0-0-0-0---------------0---0-0-0---0---0-0-0-0-0-0-0-0-|
Pm     .   . . . . .               .   . . .   .   . . . . . . . .

===================================================================
===================================================================


Pre Chorus

Guitar 1
C -----------------------------------------------------------------|
G -----------------------------------------------------------------|
D#-----------------------------------------------------------------|
A#-----------------------------------------------------------------|
F -----------------------------------------------------------------|
A#-5-5-5-5-5-5-5-5-5-5-5-5-5-5-5-5-8-8-8-8-8-8-8-8-8---------------|

Guitar 2
C -15-15-15-15-15-15-15-15-15-15-15-13-13-13-13-13-12-12-12-12-12-|
G ----------------------------------------------------------------|
D#----------------------------------------------------------------|
A#----------------------------------------------------------------|
F ----------------------------------------------------------------|
A#----------------------------------------------------------------|

===================================================================
===================================================================


Chorus 1

Guitar 1
C -----------------------------------------------------------------|
G -----------------------------------------------------------------|
D#-7---7---7---7---7---7---7---7---7---7---7---7---7---7---7---7---|
A#-7---7---7---7---7---7---7---7---7---7---7---7---7---7---7---7---|
F -5---5---5---5---5---5---5---5---5---5---5---5---5---5---5---5---|
A#-----------------------------------------------------------------|

Guitar 2
C -----------------------------------------------------------------|
G -----------------------------------------------------------------|
D#-10--10--10--10--10--10--10--10--10--10--10--10--10--10--10--10--|
A#-x---x---x---x---x---x---x---x---x---x---x---x---x---x---x---x---|
F -8---8---8---8---8---8---8---8---8---8---8---8---8---8---8---8---|
A#-----------------------------------------------------------------|

===================================================================

Guitar 1
C -----------------------------------------------------------------|
G -----------------------------------------------------------------|
D#-5---5---5---5---5---5---5---5---5---5---5---5-------------------|
A#-5---5---5---5---5---5---5---5---5---5---5---5---x---8---8---8---|
F -3---3---3---3---3---3---3---3---3---3---3---3---x---8---8---8---|
A#-------------------------------------------------x---8---8---8---|

Guitar 2
C -----------------------------------------------------------------|
G -----------------------------------------------------------------|
D#-9---9---9---9---9---9---9---9---9---9---9---9-------5---5---5---|
A#-x---x---x---x---x---x---x---x---x---x---x---x---x---x---x---x---|
F -7---7---7---7---7---7---7---7---7---7---7---7---x---3---3---3---|
A#-------------------------------------------------x---------------|

===================================================================

Guitar 1
C -----------------------------------------------------------------|
G -----------------------------------------------------------------|
D#-7---7---7---7---7---7---7---7---7---7---7---7---7---7---7---7---|
A#-7---7---7---7---7---7---7---7---7---7---7---7---7---7---7---7---|
F -5---5---5---5---5---5---5---5---5---5---5---5---5---5---5---5---|
A#-----------------------------------------------------------------|

Guitar 2
C -----------------------------------------------------------------|
G -----------------------------------------------------------------|
D#-10--10--10--10--10--10--10--10--10--10--10--10--10--10--10--10--|
A#-x---x---x---x---x---x---x---x---x---x---x---x---x---x---x---x---|
F -8---8---8---8---8---8---8---8---8---8---8---8---8---8---8---8---|
A#-----------------------------------------------------------------|

===================================================================

Guitar 1
C -----------------------------------------------------------------|
G -----------------------------------------------------------------|
D#-5---5---5---5---5---5---5---5-----------------------------------|
A#-5---5---5---5---5---5---5---5---5---5---5---5---5---8---8---8---|
F -3---3---3---3---3---3---3---3---5---5---5---5---5---8---8---8---|
A#---------------------------------5---5---5---5---5---8---8---8---|

Guitar 2
C -----------------------------------------------------------------|
G ---------------------------------10--10--10--10--10--13--13--13--|
D#-9---9---9---9---9---9---9---9---x---x---x---x---x---x---x---x---|
A#-x---x---x---x---x---x---x---x---8---8---8---8---8---10--10--10--|
F -7---7---7---7---7---7---7---7-----------------------------------|
A#-----------------------------------------------------------------|

===================================================================
===================================================================


Break Off 2

Guitar 2
C ---------------------------------|
G -10-10-10~~~-11--11~~~~~-8---8---|
D#-x--x--x-----x---x-------x---x---|
A#-7--7--7~~~~-8---8~~~~~~-5---5---|
F ---------------------------------|
A#---------------------------------|

===================================================================
===================================================================


Verse 3

Guitar 1
C -----------------------------------------------------------------|
G -----------------------------------------------------------------|
D#-----------------------------------------------------------------|
A#-----------------------------------------------------------------|
F -----------------------------------------------------------------|
A#-0-12-0------13--12~~~~~-0-12-0------13--12~~~~~-0-12-0------13--|

Guitar 2
C -----------------------------------------------------------------|
G -10-10-10~~~-11--11~~~~~-8---8~~~~~~-10--10~~~~~-10--10--10--10--|
D#-x--x--x-----x---x-------x---x-------x---x-------x---x---x---x---|
A#-7--7--7~~~~-8---8~~~~~~-5---5~~~~~~-7---7~~~~~~-7---7---7---7---|
F -----------------------------------------------------------------|
A#-----------------------------------------------------------------|

===================================================================

Guitar 1
C -----------------------------------------------------------------|
G -----------------------------------------------------------------|
D#-----------------------------------------------------------------|
A#-----------------------------------------------------------------|
F -------------------------------------------------12------7---8---|
A#-0-12-0------13--12~~~~~-0-12-0------13--12~~~~~-----0-----------|

Guitar 2
C -----------------------------------------------------------------|
G -10-10-10~~~-11--11~~~~~-8---8~~~~~~-10--10~~~~~-----------------|
D#-x--x--x-----x---x-------x---x-------x---x-------10--------------|
A#-7--7--7~~~~-8---8~~~~~~-5---5~~~~~~-7---7~~~~~~-----------------|
F -----------------------------------------------------------------|
A#-----------------------------------------------------0---10--12--|

===================================================================

Guitar 1
C -----------------------------------------------------------------|
G -----------------------------------------------------------------|
D#-----------------------------------------------------------------|
A#-----------------------------------------------------------------|
F -----------------------------------------------------------------|
A#-0-12-0------13--12~~~~~-0-12-0------13--12~~~~~-0-12-0------13--|

Guitar 2
C -----------------------------------------------------------------|
G -10-10-10~~~-11--11~~~~~-8---8~~~~~~-10--10~~~~~-10--10--10--10--|
D#-x--x--x-----x---x-------x---x-------x---x-------x---x---x---x---|
A#-7--7--7~~~~-8---8~~~~~~-5---5~~~~~~-7---7~~~~~~-7---7---7---7---|
F -----------------------------------------------------------------|
A#-----------------------------------------------------------------|

===================================================================

Guitar 1
C -----------------------------------------------------------------|
G -----------------------------------------------------------------|
D#-----------------------------------------------------------------|
A#-----------------------------------------------------------------|
F -----------------------------------------------------------------|
A#-0-12-0------13--12~~~~~-0-12-0------13--12~~~~~-0-12-0------13--|

Guitar 2
C -----------------------------------------------------------------|
G -10-10-10~~~-11--11~~~~~-8---8~~~~~~-10--10~~~~~-----------------|
D#-x--x--x-----x---x-------x---x-------x---x-------10--10--10--10--|
A#-7--7--7~~~~-8---8~~~~~~-5---5~~~~~~-7---7~~~~~~-x---x---x---x---|
F -------------------------------------------------8---8---8---8---|
A#-----------------------------------------------------------------|

===================================================================
===================================================================


Break Off 3

Guitar 1 & 2
C -----------------|
G -----------------|
D#-----------------|
A#-x---x-x-x---x-x-|
F -x---x-x-x---x-x-|
A#-x---x-x-x---x-x-|

===================================================================
===================================================================


Breakdown 2

Guitar 1 & 2
C -----------------------------------------------------------------|
G -----------------------------------------------------------------|
D#-----------------------------------------------------------------|
A#-0-0-0---0-0-0-------------------0---0---0-0-0---0-0-0---0-0-0---|
F -0-0-0---0-0-0-------------------0---0---0-0-0---0-0-0---0-0-0---|
A#-0-0-0---0-0-0-------------------0---0---0-0-0---0-0-0---0-0-0---|
Pm . . .   . . .                   .   .   . . .   . . .   . . .

===================================================================

Guitar 1 & 2
C -----------------------------------------------------------------|
G -----------------------------------------------------------------|
D#-----------------------------------------------------------------|
A#-0-0-0---0-0-0-------------------0-0-0---0-0-0---0-0-0-0-0-0-0-0-|
F -0-0-0---0-0-0-------------------0-0-0---0-0-0---0-0-0-0-0-0-0-0-|
A#-0-0-0---0-0-0-------------------0-0-0---0-0-0---0-0-0-0-0-0-0-0-|
Pm . . .   . . .                   . . .   . . .   . . . . . . . .

===================================================================

Guitar 1 & 2
C -----------------------------------------------------------------|
G -----------------------------------------------------------------|
D#-----------------------------------------------------------------|
A#-0-0-0---0-0-0-------------------0---0---0-0-0---0-0-0---0-0-0---|
F -0-0-0---0-0-0-------------------0---0---0-0-0---0-0-0---0-0-0---|
A#-0-0-0---0-0-0-------------------0---0---0-0-0---0-0-0---0-0-0---|
Pm . . .   . . .                   .   .   . . .   . . .   . . .

===================================================================

Guitar 1 & 2
C -----------------------------------------------------------------|
G -----------------------------------------------------------------|
D#-----------------------------------------------------------------|
A#-0-0-0---0-0-0----------0~~~~~~~-0-0-0---0-0-0---0-0-0-0-0-0-0-0-|
F -0-0-0---0-0-0----------0~~~~~~~-0-0-0---0-0-0---0-0-0-0-0-0-0-0-|
A#-0-0-0---0-0-0----------0~~~~~~~-0-0-0---0-0-0---0-0-0-0-0-0-0-0-|
Pm . . .   . . .                   . . .   . . .   . . . . . . . .

===================================================================
===================================================================


Chorus 2

Guitar 1
C -----------------------------------------------------------------|
G -----------------------------------------------------------------|
D#-7---7---7---7---7---7---7---7---7---7---7---7---7---7---7---7---|
A#-7---7---7---7---7---7---7---7---7---7---7---7---7---7---7---7---|
F -5---5---5---5---5---5---5---5---5---5---5---5---5---5---5---5---|
A#-----------------------------------------------------------------|

Guitar 2
C -----------------------------------------------------------------|
G -----------------------------------------------------------------|
D#-10--10--10--10--10--10--10--10--10--10--10--10--10--10--10--10--|
A#-x---x---x---x---x---x---x---x---x---x---x---x---x---x---x---x---|
F -8---8---8---8---8---8---8---8---8---8---8---8---8---8---8---8---|
A#-----------------------------------------------------------------|

===================================================================

Guitar 1
C -----------------------------------------------------------------|
G -----------------------------------------------------------------|
D#-5---5---5---5---5---5---5---5---5---5---5---5-------------------|
A#-5---5---5---5---5---5---5---5---5---5---5---5---x---8---8---8---|
F -3---3---3---3---3---3---3---3---3---3---3---3---x---8---8---8---|
A#-------------------------------------------------x---8---8---8---|

Guitar 2
C -----------------------------------------------------------------|
G -----------------------------------------------------------------|
D#-9---9---9---9---9---9---9---9---9---9---9---9-------5---5---5---|
A#-x---x---x---x---x---x---x---x---x---x---x---x---x---x---x---x---|
F -7---7---7---7---7---7---7---7---7---7---7---7---x---3---3---3---|
A#-------------------------------------------------x---------------|

===================================================================

Guitar 1
C -----------------------------------------------------------------|
G -----------------------------------------------------------------|
D#-7---7---7---7---7---7---7---7---7---7---7---7---7---7---7---7---|
A#-7---7---7---7---7---7---7---7---7---7---7---7---7---7---7---7---|
F -5---5---5---5---5---5---5---5---5---5---5---5---5---5---5---5---|
A#-----------------------------------------------------------------|

Guitar 2
C -----------------------------------------------------------------|
G -----------------------------------------------------------------|
D#-10--10--10--10--10--10--10--10--10--10--10--10--10--10--10--10--|
A#-x---x---x---x---x---x---x---x---x---x---x---x---x---x---x---x---|
F -8---8---8---8---8---8---8---8---8---8---8---8---8---8---8---8---|
A#-----------------------------------------------------------------|

===================================================================

Guitar 1
C -----------------------------------------------------------------|
G -----------------------------------------------------------------|
D#-5---5---5---5---5---5---5---5-----------------------------------|
A#-5---5---5---5---5---5---5---5---5---5---5---5---5---8---8---8---|
F -3---3---3---3---3---3---3---3---5---5---5---5---5---8---8---8---|
A#---------------------------------5---5---5---5---5---8---8---8---|

Guitar 2
C -----------------------------------------------------------------|
G ---------------------------------10--10--10--10--10--13--13--13--|
D#-9---9---9---9---9---9---9---9---x---x---x---x---x---x---x---x---|
A#-x---x---x---x---x---x---x---x---8---8---8---8---8---10--10--10--|
F -7---7---7---7---7---7---7---7-----------------------------------|
A#-----------------------------------------------------------------|

===================================================================

Guitar 1
C -----------------------------------------------------------------|
G -----------------------------------------------------------------|
D#-----------------------------------------------------------------|
A#-8---8---8---8---8---8---8---8---8---10--10--10--10--10--10--10--|
F -8---8---8---8---8---8---8---8---8---10--10--10--10--10--10--10--|
A#-8---8---8---8---8---8---8---8---8---10--10--10--10--10--10--10--|

Guitar 2
C -----------------------------------------------------------------|
G -----------------------------------------------------------------|
D#-7---7---7---7---7---7---7---7---7---9---9---9---9---9---9---9---|
A#-x---x---x---x---x---x---x---x---x---x---x---x---x---x---x---x---|
F -5---5---5---5---5---5---5---5---5---7---7---7---7---7---7---7---|
A#-----------------------------------------------------------------|

===================================================================

Guitar 1
C -----------------------------------------------------------------|
G -----------------------------------------------------------------|
D#-7---7---7---7---7---7---7---7-----------------------------------|
A#-7---7---7---7---7---7---7---7---5---5---5---5---3---3---3---3---|
F -5---5---5---5---5---5---5---5---5---5---5---5---3---3---3---3---|
A#---------------------------------5---5---5---5---3---3---3---3---|

Guitar 2
C -----------------------------------------------------------------|
G -----------------------------------------------------------------|
D#-10--10--10--10--10--10--10--10--12--12--12--12--10--10--10--10--|
A#-x---x---x---x---x---x---x---x---x---x---x---x---x---x---x---x---|
F -8---8---8---8---8---8---8---8---10--10--10--10--8---8---8---8---|
A#-----------------------------------------------------------------|

===================================================================

Guitar 1
C -----------------------------------------------------------------|
G -----------------------------------------------------------------|
D#-----------------------------------------------------------------|
A#-8---8---8---8---8---8---8---8---8---10--10--10--10--10--10--10--|
F -8---8---8---8---8---8---8---8---8---10--10--10--10--10--10--10--|
A#-8---8---8---8---8---8---8---8---8---10--10--10--10--10--10--10--|

Guitar 2
C -----------------------------------------------------------------|
G -----------------------------------------------------------------|
D#-7---7---7---7---7---7---7---7---7---9---9---9---9---9---9---9---|
A#-x---x---x---x---x---x---x---x---x---x---x---x---x---x---x---x---|
F -5---5---5---5---5---5---5---5---5---7---7---7---7---7---7---7---|
A#-----------------------------------------------------------------|

===================================================================

Guitar 1
C -----------------------------------------------------------------|
G -----------------------------------------------------------------|
D#-7---7---7---7---7---7---7---7---7---7---7---7---7---7---7---7---|
A#-7---7---7---7---7---7---7---7---7---7---7---7---7---7---7---7---|
F -5---5---5---5---5---5---5---5---5---5---5---5---5---5---5---5---|
A#-----------------------------------------------------------------|

Guitar 2
C -----------------------------------------------------------------|
G -----------------------------------------------------------------|
D#-10--10--10--10--10--10--10--10--10--10--10--10--10--10--10--10--|
A#-x---x---x---x---x---x---x---x---x---x---x---x---x---x---x---x---|
F -8---8---8---8---8---8---8---8---8---8---8---8---8---8---8---8---|
A#-----------------------------------------------------------------|

===================================================================
===================================================================


Interlude 1

Guitar 1
C -----------------------------------------------------------------|
G -----------------------------------------------------------------|
D#-----------------------------------------------------------------|
A#-0~~~~~~~~~~~~~~~~~~~~~~~~~~~~~~~~~~~~~~~~~~~~~~~~~~~~~~~~~~~~~~-
F -0~~~~~~~~~~~~~~~~~~~~~~~~~~~~~~~~~~~~~~~~~~~~~~~~~~~~~~~~~~~~~~-
A#-0~~~~~~~~~~~~~~~~~~~~~~~~~~~~~~~~~~~~~~~~~~~~~~~~~~~~~~~~~~~~~~-

Guitar 2
C -----------------------------------------------------------------|
G -3-----------------------3-----------------------3---------------|
D#---------3---2-------------------3---2-------------------3---2---|
A#-----0-----------1~~~~~~-----0-----------1~~~~~~-----0-----------|
F -----------------------------------------------------------------|
A#-----------------------------------------------------------------|

===================================================================

Guitar 1
C -----------------------------------------------------------------|
G -----------------------------------------------------------------|
D#-----------------------------------------------------------------|
A#-0~~~~~~~~~~~~~~~~~~~~~~~~~~~~~~~~~~~~~~~~~~~~~~~~~~~~~~~~~~~~~~-
F -0~~~~~~~~~~~~~~~~~~~~~~~~~~~~~~~~~~~~~~~~~~~~~~~~~~~~~~~~~~~~~~-
A#-0~~~~~~~~~~~~~~~~~~~~~~~~~~~~~~~~~~~~~~~~~~~~~~~~~~~~~~~~~~~~~~-

Guitar 2
C -------------------------------------------------0-1-0-----------|
G -3-----------------------3-----------------------------3-2-------|
D#---------3---2-------------------3---2---------------------3-2-0-|
A#-----0-----------1~~~~~~-----0-----------1~~~~~~-----------------|
F -----------------------------------------------------------------|
A#-----------------------------------------------------------------|

===================================================================

Guitar 1
C -----------------------------------------------------------------|
G -----------------------------------------------------------------|
D#-----------------------------------------------------------------|
A#-0---0---0-0-0-0-0---------------0---0-0-0---0-0-0---0---0-0-0-0-|
F -0---0---0-0-0-0-0---------------0---0-0-0---0-0-0---0---0-0-0-0-|
A#-0---0---0-0-0-0-0---------------0---0-0-0---0-0-0---0---0-0-0-0-|
Pm .   .   . . . . .               .   . . .   . . .   .   . . . .

Guitar 2
C -----------------------------------------------------------------|
G -3-----------------------3-----------------------3---------------|
D#---------3---2-------------------3---2-------------------3---2---|
A#-----0-----------1~~~~~~-----0-----------1~~~~~~-----0-----------|
F -----------------------------------------------------------------|
A#-----------------------------------------------------------------|

===================================================================

Guitar 1
C -----------------------------------------------------------------|
G -----------------------------------------------------------------|
D#-----------------------------------------------------------------|
A#-----0---0-0-0-0-0---------------0---0-0-0---0-0-0---0---0-0-0-0-|
F -----0---0-0-0-0-0---------------0---0-0-0---0-0-0---0---0-0-0-0-|
A#-----0---0-0-0-0-0---------------0---0-0-0---0-0-0---0---0-0-0-0-|
Pm     .   . . . . .               .   . . .   . . .   .   . . . .

Guitar 2
C -------------------------------------------------0-1-0-----------|
G -3-----------------------3-----------------------------3-2-------|
D#---------3---2-------------------3---2---------------------3-2-0-|
A#-----0-----------1~~~~~~-----0-----------1~~~~~~-----------------|
F -----------------------------------------------------------------|
A#-----------------------------------------------------------------|

===================================================================

Guitar 1
C -----------------------------------------------------------------|
G -----------------------------------------------------------------|
D#-----------------------------------------------------------------|
A#-0---0---0-0-0-0-0---------------0---0-0-0---0-0-0---0---0-0-0-0-|
F -0---0---0-0-0-0-0---------------0---0-0-0---0-0-0---0---0-0-0-0-|
A#-0---0---0-0-0-0-0---------------0---0-0-0---0-0-0---0---0-0-0-0-|
Pm .   .   . . . . .               .   . . .   . . .   .   . . . .

Guitar 2
C -----------------------------------------------------------------|
G -3-----------------------3-----------------------3---------------|
D#---------3---2-------------------3---2-------------------3---2---|
A#-----0-----------1~~~~~~-----0-----------1~~~~~~-----0-----------|
F -----------------------------------------------------------------|
A#-----------------------------------------------------------------|

===================================================================

Guitar 1
C -----------------------------------------------------------------|
G -----------------------------------------------------------------|
D#-----------------------------------------------------------------|
A#-----0---0-0-0-0-0---------------0---0-0-0---0-0-0---0---0-0-0-0-|
F -----0---0-0-0-0-0---------------0---0-0-0---0-0-0---0---0-0-0-0-|
A#-----0---0-0-0-0-0---------------0---0-0-0---0-0-0---0---0-0-0-0-|
Pm     .   . . . . .               .   . . .   . . .   .   . . . .

Guitar 2
C -------------------------------------------------0-1-0-----------|
G -3-----------------------3-----------------------------3-2-------|
D#---------3---2-------------------3---2---------------------3-2-0-|
A#-----0-----------1~~~~~~-----0-----------1~~~~~~-----------------|
F -----------------------------------------------------------------|
A#-----------------------------------------------------------------|

===================================================================
===================================================================


Break Off 4

Guitar 2
C -----------------|
G -----14--15--16--|
D#-14~~~~~~~~~~~~~-
A#-----------------|
F -----------------|
A#-----------------|

===================================================================
===================================================================


Interlude 2

Guitar 1
C -----------------------------------------------------------------|
G -----------------------------------------------------------------|
D#-----------------------------------------------------------------|
A#-0---0---0-0-0-0-0---------------0---0-0-0---0-0-0---0---0-0-0-0-|
F -0---0---0-0-0-0-0---------------0---0-0-0---0-0-0---0---0-0-0-0-|
A#-0---0---0-0-0-0-0---------------0---0-0-0---0-0-0---0---0-0-0-0-|
Pm .   .   . . . . .               .   . . .   . . .   .   . . . .

Guitar 2
C -----------------------------------------------------------------|
G -15~~~~~-15--16--15~~~~~-15--16--15------------------15~~~~~~~~~-|
D#-----15~~~~~~~~~~~~~-15~~------------15--14------14~~~~~-14~~~~~-|
A#---------------------------------------------12~~~~~~~~~~~~~-12--|
F -----------------------------------------------------------------|
A#-----------------------------------------------------------------|

===================================================================

Guitar 1
C -----------------------------------------------------------------|
G -----------------------------------------------------------------|
D#-----------------------------------------------------------------|
A#-----0---0-0-0-0-0---------------0---0-0-0---0-0-0---0---0-0-0-0-|
F -----0---0-0-0-0-0---------------0---0-0-0---0-0-0---0---0-0-0-0-|
A#-----0---0-0-0-0-0---------------0---0-0-0---0-0-0---0---0-0-0-0-|
Pm     .   . . . . .               .   . . .   . . .   .   . . . .

Guitar 2
C -----------------------------------------------------------------|
G -15~~~~~-16~~~~~-15~~~~~-16~~~~~-15~~~~~-16~~~~~-15--16--17~~~~~-|
D#-----15~~~~~-15~~~~~-15~~~~~-15~~~~~-14~~~~~-14~~~~~~~~~~~~~~~~~-|
A#-----------------------------------------------------------------|
F -----------------------------------------------------------------|
A#-----------------------------------------------------------------|

===================================================================

Guitar 1
C -----------------------------------------------------------------|
G -----------------------------------------------------------------|
D#-----------------------------------------------------------------|
A#-0---0---0-0-0-0-0---------------0---0-0-0---0-0-0---0---0-0-0-0-|
F -0---0---0-0-0-0-0---------------0---0-0-0---0-0-0---0---0-0-0-0-|
A#-0---0---0-0-0-0-0---------------0---0-0-0---0-0-0---0---0-0-0-0-|
Pm .   .   . . . . .               .   . . .   . . .   .   . . . .

Guitar 2
C -----------------------------------------------------------------|
G -14~~~~~-14--15--14~~~~~-14--15--14------------------14~~~~~~~~~-|
D#-----14~~~~~~~~~~~~~-14~~------------14--13------13~~~~~-13~~~~~-|
A#---------------------------------------------11~~~~~~~~~~~~~-11--|
F -----------------------------------------------------------------|
A#-----------------------------------------------------------------|

===================================================================

Guitar 1
C -----------------------------------------------------------------|
G -----------------------------------------------------------------|
D#-----------------------------------------------------------------|
A#-----0---0-0-0-0-0---------------0---0-0-0---0-0-0---0---0-0-0-0-|
F -----0---0-0-0-0-0---------------0---0-0-0---0-0-0---0---0-0-0-0-|
A#-----0---0-0-0-0-0---------------0---0-0-0---0-0-0---0---0-0-0-0-|
Pm     .   . . . . .               .   . . .   . . .   .   . . . .

Guitar 2
C -----------------------------------------------------------------|
G -14~~~~~-15~~~~~-14~~~~~-15~~~~~-14~~~~~-15~~~~~-14--15--16~~~~~-|
D#-----14~~~~~-14~~~~~-14~~~~~-14~~~~~-13~~~~~-13~~~~~~~~~~~~~~~~~-|
A#-----------------------------------------------------------------|
F -----------------------------------------------------------------|
A#-----------------------------------------------------------------|

===================================================================
===================================================================


Chorus 3

Guitar 1
C -----------------------------------------------------------------|
G -----------------------------------------------------------------|
D#-----------------------------------------------------------------|
A#-----------------------------------------------------------------|
F -5---5---5---5---5---5---5---5---5---5---5---5---5---5---5---5---|
A#-----------------------------------------------------------------|

Guitar 2
C -----------------------------------------------------------------|
G -----------------------------------------------------------------|
D#-----------------------------------------------------------------|
A#-----------------------------------------------------------------|
F -8---8---8---8---8---8---8---8---8---8---8---8---8---8---8---8---|
A#-----------------------------------------------------------------|

===================================================================

Guitar 1
C -----------------------------------------------------------------|
G -----------------------------------------------------------------|
D#-5---5---5---5---5---5---5---5---5---5---5---5-------------------|
A#-5---5---5---5---5---5---5---5---5---5---5---5---x---8---8---8---|
F -3---3---3---3---3---3---3---3---3---3---3---3---x---8---8---8---|
A#-------------------------------------------------x---8---8---8---|

Guitar 2
C -----------------------------------------------------------------|
G -----------------------------------------------------------------|
D#-9---9---9---9---9---9---9---9---9---9---9---9-------5---5---5---|
A#-x---x---x---x---x---x---x---x---x---x---x---x---x---x---x---x---|
F -7---7---7---7---7---7---7---7---7---7---7---7---x---3---3---3---|
A#-------------------------------------------------x---------------|

===================================================================

Guitar 1
C -----------------------------------------------------------------|
G -----------------------------------------------------------------|
D#-7---7---7---7---7---7---7---7---7---7---7---7---7---7---7---7---|
A#-7---7---7---7---7---7---7---7---7---7---7---7---7---7---7---7---|
F -5---5---5---5---5---5---5---5---5---5---5---5---5---5---5---5---|
A#-----------------------------------------------------------------|

Guitar 2
C -----------------------------------------------------------------|
G -----------------------------------------------------------------|
D#-10--10--10--10--10--10--10--10--10--10--10--10--10--10--10--10--|
A#-x---x---x---x---x---x---x---x---x---x---x---x---x---x---x---x---|
F -8---8---8---8---8---8---8---8---8---8---8---8---8---8---8---8---|
A#-----------------------------------------------------------------|

===================================================================

Guitar 1
C -----------------------------------------------------------------|
G -----------------------------------------------------------------|
D#-5---5---5---5---5---5---5---5-----------------------------------|
A#-5---5---5---5---5---5---5---5---5---5---5---5---5---8---8---8---|
F -3---3---3---3---3---3---3---3---5---5---5---5---5---8---8---8---|
A#---------------------------------5---5---5---5---5---8---8---8---|

Guitar 2
C -----------------------------------------------------------------|
G ---------------------------------10--10--10--10--10--13--13--13--|
D#-9---9---9---9---9---9---9---9---x---x---x---x---x---x---x---x---|
A#-x---x---x---x---x---x---x---x---8---8---8---8---8---10--10--10--|
F -7---7---7---7---7---7---7---7-----------------------------------|
A#-----------------------------------------------------------------|

===================================================================

Guitar 1
C -----------------------------------------------------------------|
G -----------------------------------------------------------------|
D#-----------------------------------------------------------------|
A#-8---8---8---8---8---8---8---8---8---10--10--10--10--10--10--10--|
F -8---8---8---8---8---8---8---8---8---10--10--10--10--10--10--10--|
A#-8---8---8---8---8---8---8---8---8---10--10--10--10--10--10--10--|

Guitar 2
C -----------------------------------------------------------------|
G -----------------------------------------------------------------|
D#-7---7---7---7---7---7---7---7---7---9---9---9---9---9---9---9---|
A#-x---x---x---x---x---x---x---x---x---x---x---x---x---x---x---x---|
F -5---5---5---5---5---5---5---5---5---7---7---7---7---7---7---7---|
A#-----------------------------------------------------------------|

===================================================================

Guitar 1
C -----------------------------------------------------------------|
G -----------------------------------------------------------------|
D#-7---7---7---7---7---7---7---7-----------------------------------|
A#-7---7---7---7---7---7---7---7---5---5---5---5---3---3---3---3---|
F -5---5---5---5---5---5---5---5---5---5---5---5---3---3---3---3---|
A#---------------------------------5---5---5---5---3---3---3---3---|

Guitar 2
C -----------------------------------------------------------------|
G -----------------------------------------------------------------|
D#-10--10--10--10--10--10--10--10--12--12--12--12--10--10--10--10--|
A#-x---x---x---x---x---x---x---x---x---x---x---x---x---x---x---x---|
F -8---8---8---8---8---8---8---8---10--10--10--10--8---8---8---8---|
A#-----------------------------------------------------------------|

===================================================================

Guitar 1
C -----------------------------------------------------------------|
G -----------------------------------------------------------------|
D#-----------------------------------------------------------------|
A#-8---8---8---8---8---8---8---8---8---10--10--10--10--10--10--10--|
F -8---8---8---8---8---8---8---8---8---10--10--10--10--10--10--10--|
A#-8---8---8---8---8---8---8---8---8---10--10--10--10--10--10--10--|

Guitar 2
C -----------------------------------------------------------------|
G -----------------------------------------------------------------|
D#-7---7---7---7---7---7---7---7---7---9---9---9---9---9---9---9---|
A#-x---x---x---x---x---x---x---x---x---x---x---x---x---x---x---x---|
F -5---5---5---5---5---5---5---5---5---7---7---7---7---7---7---7---|
A#-----------------------------------------------------------------|

===================================================================

Guitar 1
C -----------------------------------------------------------------|
G -----------------------------------------------------------------|
D#-7---7---7---7---7---7---7---7---7---7---7---7---7---7---7---7---|
A#-7---7---7---7---7---7---7---7---7---7---7---7---7---7---7---7---|
F -5---5---5---5---5---5---5---5---5---5---5---5---5---5---5---5---|
A#-----------------------------------------------------------------|

Guitar 2
C -----------------------------------------------------------------|
G -----------------------------------------------------------------|
D#-10--10--10--10--10--10--10--10--10--10--10--10--10--10--10--10--|
A#-x---x---x---x---x---x---x---x---x---x---x---x---x---x---x---x---|
F -8---8---8---8---8---8---8---8---8---8---8---8---8---8---8---8---|
A#-----------------------------------------------------------------|

===================================================================
===================================================================


Outro

Guitar 1 & 2
C -----------------------------------------------------------------|
G -----------------------------------------------------------------|
D#-----------------------------------------------------------------|
A#-0-0-0---0-0-0-------------------0---0---0-0-0---0-0-0---0-0-0---|
F -0-0-0---0-0-0-------------------0---0---0-0-0---0-0-0---0-0-0---|
A#-0-0-0---0-0-0-------------------0---0---0-0-0---0-0-0---0-0-0---|
Pm . . .   . . .                   .   .   . . .   . . .   . . .

===================================================================

Guitar 1 & 2
C -----------------------------------------------------------------|
G -----------------------------------------------------------------|
D#-----------------------------------------------------------------|
A#-0-0-0---0-0-0-------------------0-0-0---0-0-0---0-0-0-0-0-0-0-0-|
F -0-0-0---0-0-0-------------------0-0-0---0-0-0---0-0-0-0-0-0-0-0-|
A#-0-0-0---0-0-0-------------------0-0-0---0-0-0---0-0-0-0-0-0-0-0-|
Pm . . .   . . .                   . . .   . . .   . . . . . . . .

===================================================================

Guitar 1 & 2
C -----------------------------------------------------------------|
G -----------------------------------------------------------------|
D#-----------------------------------------------------------------|
A#-0-0-0---0-0-0-------------------0---0---0-0-0---0-0-0---0-0-0---|
F -0-0-0---0-0-0-------------------0---0---0-0-0---0-0-0---0-0-0---|
A#-0-0-0---0-0-0-------------------0---0---0-0-0---0-0-0---0-0-0---|
Pm . . .   . . .                   .   .   . . .   . . .   . . .

===================================================================

Guitar 1 & 2
C -----------------------------------------------------------------|
G -----------------------------------------------------------------|
D#-----------------------------------------------------------------|
A#-0-0-0---0-0-0-------------------0-0-0---0-0-0---0-0-0-0-0-0-0-0-|
F -0-0-0---0-0-0-------------------0-0-0---0-0-0---0-0-0-0-0-0-0-0-|
A#-0-0-0---0-0-0-------------------0-0-0---0-0-0---0-0-0-0-0-0-0-0-|
Pm . . .   . . .                   . . .   . . .   . . . . . . . .

===================================================================
===================================================================
===================================================================


Tab Legend
h  - hammer-on
p  - pull-off
/  - slide up
\  - slide down
ps/- pickslide up
ps\- pickslide down
~  - let ring
pm.- palm mute
b  - bend
r  - return from bend
t  - finger tapping
*  - harmonic
x  - dead note
^  - Whammy bar
^\ - Whammy bar (hold down)

That’s the end of it! I hope this helped, and be sure to check out my cover if you are
having problems with the tab. Thanks, oh and one last thing... ROCK OUT!!!!





Comments


Popular The Word Alive tabs & chords
Like Father Like Son Bass Tabs
2012 2 Tabs
Casanova Rodeo 1 Tabs
Consider It MutualIntro Tabs
Epiphany 1 Tabs
How To Build An Empire 2 Tabs
Like Father Like Son Tabs
Over The Mountain Tabs
The Devil Inside Tabs
You're All I See Tabs


Song lyrics



↑ Back to top | Tablatures and chords are parodies/interpretations of the original songs. You may use it for private study, scholarship, research or language learning purposes only
© 2014 AZChords.com Contact us | Privacy policy | DMCA | Add/correct tabs | Request tabs | Top 50 tabs