>
 >
We Know Who You Are

We Know Who You Are Guitar Tabs

The Word Alive - We Know Who You Are chords, tabs, tablatures, lyrics

Guitar lessons | Add/correct | Request | Top 50 tabs Artists:  A B C D E F G H I J K L M N O P Q R S T U V W X Y Z 0-9

We Know Who You Are Guitar Tabs – The Word Alive

CD, Sheet music, Poster

Do you like We Know Who You Are? Share with your friends now
Tabs
[We Know Who You Are]
[Deceiver]
[The Word Alive]

Tuning: Drop C (CGCFAD/Drop D One Steps Down)

As Requested By: JRohrer14

[Riff 1] - [00:00] - [00:11--------| - [4x]
- ---------------------------------|
- ---------------------------------|
- ---------------------------------|
- ---------------------------------| End with whammy bar down.
- ---------------------------------|
- -0-0h1h3-000h1h3-000--0---0-000--|
PM .       ..      ..         ...

----------------------------------------------------------------------------

[Riff 2] - [00:11] - [00:21---------| - [4x]
- ----------------------------------|
- ----------------------------------|
- ----------------------------------|
- ----------------------------------|
- ----------------------------------|
- -000h1h3-000h1h3-000-000-000-000--|
PM ..      ..      ..  ..  ..  ..

----------------------------------------------------------------------------

[Riff 3a] - [00:21] - [00:41]
- -----------------------------------------------|
- -----------------------------------------------|
- ------------1010-------------1010--------1010--|
- ---121212-----------121212---------1212--------|
- ----------8-----8----------8-----8-----8-----8-|
- -----------------------------------------------|

- ---------------------------------|
- ---------------------------------|
- ---------66----------66------66--|
- ---888---------888-------88------|
- -------5---5-------5---5---5---5-|
- ---------------------------------|

- ---------------------------------------|
- ---------------------------------------|
- ---------------------------------------|
- ----------88-------------88--------88--|
- -101010---------101010-------1010------|
- --------8---8----------8---8-----8---8-|

- ---------------------------------|
- ---------------------------------|
- ---------------------------------|
- ---------------------------------|
- ---000-0-000---000-0-000-000-000-|
- ---000-0-000---000-0-000-000-000-|
PM   .............................

[Riff 3b] - [
- ---------------------------------|
- ---------------------------------|
- ---------77----------77------77--|
- ---888---------888-------88------| (first time dont play)
- -------5---5-------5---5---5---5-|
- ---------------------------------|

- ---------------------------------------|
- ---------------------------------------|
- ---------------------------------------|
- ----------88-------------88--------88--|
- -101010---------101010-------1010------|
- --------8---8----------8---8-----8---8-|

- ---------------------------------|
- ---------------------------------|
- ---------------------------------|
- ---------55----------55------55--|
- ---777---------777-------77------|
- -------5---5-------5---5---5---5-|

- ---------------------------------|
- ---------------------------------|
- ---------------------------------|
- ---------------------------------|
- ---000-0-000---000-0-000-000-000-|
- ---000-0-000---000-0-000-000-000-|
PM   .............................

----------------------------------------------------------------------------

[Riff 4] - [00:41] - [00:43]
- ---------------------------------|
- ---------------------------------|
- ---------------------------------|
- ---------------------------------|
- ---000-0-000---000-0-000-000-000-|
- ---000-0-000---000-0-000-000-000-|
PM   .............................

----------------------------------------------------------------------------

[Riff 5] - [00:43] - [00:53]
- ---------------------------------|
- ---------------------------------|
- ---------------------------------|
- ---------------------------------|
- ---000-0-000---000-0-000-000-000-|
- ---000-0-000---000-0-000-000-000-|
PM   .............................

- ---------------------------------|
- ---------------------------------|
- ---------------------------------|
- ---------------------------------|
- ---000-0-000---000-0-000-000-10\-|
- ---000-0-000---000-0-000-000-----|
PM   .........................

- ---------------------------------|
- ---------------------------------|
- ---------------------------------|
- ---------------------------------|
- ---000-0-000---000-0-000-000-000-|
- ---000-0-000---000-0-000-000-000-|
PM   .............................

- ---------------------------------|
- ---------------------------------|
- ---------------------------------|
- ---------------------------------|
- ---000-0-000---000-0-000-000-000-|
- ---000-0-000---000-0-000-000-000-|
PM   .............................

----------------------------------------------------------------------------

[Riff 6] - [00:53] - [01:03---------| - [2x]
- ----------------------------------|
- ----------------------------------|
- ----------------------------------|
- ----------------------------------|
- ---000-0-000-------------0000000--|
- ---000-0-000-------------0000000--|
PM   .............................
- ---------------------------------|
- ---------------------------------|
- ---------------------------------|
- ---------------------------------|
- ---000-0-000-------------000-000-|
- ---000-0-000-------------000-000-|
PM   .............................

----------------------------------------------------------------------------

[Riff 7a, Guitar 1] - [01:03] - [01:23]
- -------------------------------------------------------------|
- -------------------------------------------------------------|
- -5------8------7------5------7------5------7------10---------|
- -x------x------x------x------x------x------x------x----------|
- -3(16x)-6(16x)-5(16x)-3(16x)-5(16x)-3(16x)-5(16x)-8(14x)-----|
- ---------------------------------------------------------8\--|

[Riff 7a, Guitar 2] - [01:03] - [01:23]
- --------------------------------------------------------------------|
- --------------------------------------------------------------------|
- -12------12------15------17------12------10-----15------14----------|
- -x-------x-------x-------x-------x-------x------x-------x-----------|
- -10(16x)-10(16x)-13(16x)-15(16x)-10(16x)-8(16x)-13(16x)-12(14x)-----|
- ----------------------------------------------------------------8\--|

[Riff 7b] - [01:03] - [01:23]
- ------------------------------------------------|
- -10-------10------------------------------------|
- -------------------10----------------10/12\10---|
- ----12-------12-------12-------12-------------8-|
- -------10-------10-------10-10----10------------|
- ------------------------------------------------|
PM    .....    .....    ..............

- ------------------------------------------------|
- -10-------10------------------------------10----|
- -------------------10-------12\10---10/12----12-|
- ----12-------12-------12----------8-------------|
- -------10-------10-------10---------------------|
- ------------------------------------------------|
PM    .....    .....    .....       .

- -------------------------------------------------|
- -10-------10-------11-------11-------11----------|
- -------------------------------------------------|
- ----12-------12-------12-------12-------12-------|
- -------10-------10-------10-------10-------10-10-|
- -------------------------------------------------|
PM    .....    .....    .....    .....    ........

- -------------------------------------------------|
- -10-------10-------10-------10-------10----------|
- -------------------------------------------------|
- ----12-------12-------12-------12-------12-------|
- -------10-------10-------10-------10-------10-10-|
- -------------------------------------------------|
PM    .....    .....    .....    .....    ........

- -10-10-10-10---------10-10-10-10---------|
- -------------8-8-8-8-------------8-8-8-8-|
- -----------------------------------------|
- -----------------------------------------|
- -----------------------------------------|
- -----------------------------------------|

- -8-8-8-8---------8-8-8-8---------|
- ---------6-6-6-6---------6-6-6-6-|
- ---------------------------------|
- ---------------------------------|
- ---------------------------------|
- ---------------------------------|

- -/15-15-15-15-------------15-15-15-15-------------|
- --------------13-13-13-13-------------13-13-13-13-|
- --------------------------------------------------|
- --------------------------------------------------|
- --------------------------------------------------|
- --------------------------------------------------|

- -13-13-13-13-------------13-13-13-13-------------|
- -------------11-11-11-11-------------11-11-11\---|
- -------------------------------------------------|
- -------------------------------------------------|
- -------------------------------------------------|
- -------------------------------------------------|

----------------------------------------------------------------------------

[Riff 2] - [01:23] - [01:33] - [4x]
[Riff 3a + b] - [01:33] - [01:53]

----------------------------------------------------------------------------

[Riff 8] - [01:55] - [02:03---------| - [3x]
- ----------------------------------|
- ----------------------------------|
- ----------------------------------|
- ----------------------------------|
- ---------22----------22--44--22---|
- ---001-0---1---001-0---1---1---1--|

----------------------------------------------------------------------------

[Riff 9] - [02:03] - [02:13---------------| - [2x]
- ----------------------------------------|
- ----------------------------------------|
- ----------------------------------------|
- ----------------------------------------|
- ---1---------------------1--------------|
- -----2-1-0-----------------2-1---0-0-0--|

- ---------------------------------------|
- ---------------------------------------|
- ---------------------------------------|
- ---------------------------------2-2-2-|
- ---1---------------------1-------------|
- -----2-1-0-----------------2-1---------|

----------------------------------------------------------------------------

[Riff 10a] - [02:13] - [02:18]
- ----------------------------------|
- ----------------------------------|
- -7~--------------12~--------------|
- -0~--------------0~---------------|
- -3~--------------10~--------------|
- ----------------------------------|

[Riff 10b] - [02:13] - [02:18]
- -------------------------------------------------|
- -10-------10-------------------------------------|
- -------------------10-------10-------10----------|
- ----12-------12-------12-------12-------12-------|
- -------10-------10-------10-------10-------10-10-|
- -------------------------------------------------|
PM    .....    .....    .....    .....    ........

- -------------------10----------------------------|
- ----------13----------------10-------------------|
- -12----------------------------------12----12----|
- ----12-------12-------12-------12-------12----12-|
- -------10-------10-------10-------10-------------|
- -------------------------------------------------|
PM    .....    .....    .....    .....    ..    ..

----------------------------------------------------------------------------

[Riff 7a + b] & [Riff 7b] - [02:18] - [02:33]

riff starts like in the middle lol

----------------------------------------------------------------------------

[Riff 11a] - [02:33] - [02:43]
- -------------------------------------------------|
- -------------------------------------------------|
- -7~------12~-----15~-----7~------7~--------------|
- -0~------0~------0~------0~------0~--------------|
- -3~------10~-----13~-----5~------3~--------------|
- -------------------------------------------------|

[Riff 11b] - [02:33] - [02:43]
- -----------------------------10--6---------------8---10--------------|
- -10\---------6---8-------------------------------------------8-------|
- ---------------------------------------------------------------------|
- ---------------------------------------------------------------------|
- ---------------------------------------------------------------------|
- ---------------------------------------------------------------------|

----------------------------------------------------------------------------

[Riff 12] - [02:43] - [03:42----------------------------------------| - [6x]
- ------------------------------------------------------------------|
- ------------------------------------------------------------------|
- -------7---------------7-------------------------------7----------|
- ---5-------5---5---5-------5---5-5-----8-------8-7-7-------7---5--|
- -3---3-------3---6---6-------6-----5-------5----------------------|
- -------------------------------------5-------5-------3-------3----|

[Riff 13] - [03:02] - [03:42----------------------------------------| - [4x]
- ---------10--------------8---------------5---------------5--------|
- ---8---8---8-------6---6---6-------3---3---3-------3---3---3------|
- -10--10------10--8---8-------8---5---5-------5---2---2-------2p0--|
- ------------------------------------------------------------------|
- ------------------------------------------------------------------|
- ------------------------------------------------------------------|

----------------------------------------------------------------------------

[Riff 14] - [03:42] - [04:02]
- -----10------10------8-------8-------5-------5-------5-------5---|
- ---8---8---8---8---6---6---6---6---3---3---3---3---3---3---3---3-|
- -10------10------8-------8-------5-------5-------2-------2-------|
- -----------------------------------------------------------------|
- -----------------------------------------------------------------|
- -----------------------------------------------------------------|

[Riff 15] - [03:52] - [04:02]
- ------------------------------------------------------------------|
- -----------------8~-----------------------------------------------|
- -0~--------------7~--------------15151515151515151414141414141414-|
- -----------------5~--------------x-x-x-x-x-x-x-x-x-x-x-x-x-x-x-x--|
- ---------------------------------13131313131313131212121212121212-|
- ------------------------------------------------------------------|

----------------------------------------------------------------------------

[Riff 16] - [04:02] - [04:13]
- -----------------------------------------------------------------|
- -----------------------------------------------------------------|
- -------7---------------7---------------------------------7~------|
- ---5-------5---5---5-------5---5-5-----8-------8-7-------7~------|
- -3---3-------3---6---6-------6-----5-------5-------3-----3~------|
- -------------------------------------5-------5-------3---3~------|

----------------------------------------------------------------------------

[Riff 7a + b] & [Riff 7b] - [04:13] - [04:53]

[Riff 17] - [04:33] - [04:53]
- -------------------------------------13-13-13-13-|
- -13-13-13-13-13-13-13-13-13-13-13-13-------------|
- -------------------------------------------------|
- -------------------------------------------------|
- -------------------------------------------------|
- -------------------------------------------------|

- -13-13-13-13-13-13-13-13-13-13-13-13-15-15-15-15-|
- -------------------------------------------------|
- -------------------------------------------------|
- -------------------------------------------------|
- -------------------------------------------------|
- -------------------------------------------------|

- -17-17-18-18-18-18-18-18-18-18-18-18-18-18-18-18-|
- -------------------------------------------------|
- -------------------------------------------------|
- -------------------------------------------------|
- -------------------------------------------------|
- -------------------------------------------------|

- -13-13-13-13-13-13-13-13-15-15-15-15-------------|
- -------------------------------------15-15-15-15-|
- -------------------------------------------------|
- -------------------------------------------------|
- -------------------------------------------------|
- -------------------------------------------------|

- -------------------------------------13-13-13-13-|
- -13-13-13-13-13-13-13-13-13-13-13-13-------------|
- -------------------------------------------------|
- -------------------------------------------------|
- -------------------------------------------------|
- -------------------------------------------------|

- -13-13-13-13-13-13-13-13-13-13-13-13-15-15-15-15-|
- -------------------------------------------------|
- -------------------------------------------------|
- -------------------------------------------------|
- -------------------------------------------------|
- -------------------------------------------------|

- -17-17-18-18-18-18-18-18-18-18-18-18-22-22-22-22-|
- -------------------------------------------------|
- -------------------------------------------------|
- -------------------------------------------------|
- -------------------------------------------------|
- -------------------------------------------------|

- -15-15-15-15-15-15-15-15-------------------------|
- -------------------------13-13-13-13-13-13-13-13-|
- -------------------------------------------------|
- -------------------------------------------------|
- -------------------------------------------------|
- -------------------------------------------------|

----------------------------------------------------------------------------

[Riff 18a] - [04:53] - [05:13----------------------------------------| - [2x]
- -------------------------------------------------------------------|
- -------------------------------------------------------------------|
- -7-----------10--12--------------15----------15--14----------------|
- -x-----------x---x---------------x-----------x---x-----------------|
- -5-----------8---10--------------13----------13--12----------------|
- -------------------------------------------------------------------|

im really unsure about all this.. see my gp :P it just sounds close lol

[Riff 18b] - [04:53] - [05:13]
- ----------------------------------------------------|
- -11~---------10h13p11p10----------------------------|
- -------------------------14p12p10---------------10~-|
- ---------------------------------12-10~-------------|
- ----------------------------------------------------|
- ----------------------------------------------------|

- -----------------------------------------------|
- ----------------------------------------6h8h10-|
- -----------------------------------5h7h9-------|
- -12~---------8~--7~-----------5h7h9------------|
- -------------------------5h7h9-----------------|
- -----------------------------------------------|

- ---------------------------------|
- -11~-----------------------------|
- -------------13~-15~---------18~-|
- ---------------------------------|
- ---------------------------------|
- ---------------------------------|

this i just dont kno :P play around these notes lolll
ill replace this and credit anyone that wants to be a genius n figure
it out :P trust me, ive tried.

- ---------------------------------------|
- ---------------------------------------|
- -----------------12h14p12p10-----------|
- ---------10h12h14-----------14p12p10---|
- -10h12h14---------------------------13-|
- ---------------------------------------|

- ---------------------------------------|
- -----------------13--------------------|
- ---------12h14h15--15p14-15p14p12------|
- -12h14h15------------------------15p14-|
- ---------------------------------------|
- ---------------------------------------|

- -----------------------------------|
- ---------15h16h18-18p16p15---------|
- -14h15h17-----------------17p15p14-|
- -----------------------------------|
- -----------------------------------|
- -----------------------------------|

- -----------------------------------------|
- -----------------------------------------|
- -----------------------------------------|
- ---------------------------12-14p12------|
- -17p15p14-15p14p12-12h14h15--------15p14-|
- -----------------------------------------|

----------------------------------------------------------------------------

[Riff 19, Guitar 1 & 2] - [05:13] - [
- ---------|
- ---------|
- -5~------|
- -x-------|
- -3~------|
- ---------|
-
- ---------|
- ---------|
- ---------|
- -12~-----|
- ---------|
- ---------|

----------------------------------------------------------------------------

[Symbols]

PM... Palm Mute notes with (...) under them
\     Slide Down
/     Slide Up
( x)  Play x amount of times
~     Let Ring
h     Hammer On
p     Pull Off

:)





Comments


Popular The Word Alive tabs & chords
Like Father Like Son Bass Tabs
Battle Royale Tabs
Casanova Rodeo Tabs
Consider It MutualIntro Tabs
Life Cycles Tabs
Lights And Stones Tabs
Over The Mountain Tabs
The Hounds Of Anubis 3 Tabs
The Wretched Tabs
Wishmaster Tabs


Song lyrics



↑ Back to top | Tablatures and chords are parodies/interpretations of the original songs. You may use it for private study, scholarship, research or language learning purposes only
© 2014 AZChords.com Contact us | Privacy policy | DMCA | Add/correct tabs | Request tabs | Top 50 tabs