» » »

The Hounds Of Anubis Tabs (ver.4)

Artists:  A B C D E F G H I J K L M N O P Q R S T U V W X Y Z # 

The Hounds Of Anubis Tabs (ver.4)

The Word Alive
Rating:
0/5 (0 votes)

Hard to play? Try these video lessons and learn fast.
                The only other version i found for this song
was the plain intro and it was almost 100%
wrong haha. So I wanted to put together my attempt.
I don't it all figured out yet, so I'll be updating as i
figure more out. Once again, this is all me, all my ear,
so its not perfect. But it works for me! P.S. this is only
my second tab so go easy on me!! :) If you figure
something out that I don't have or something

Lead Guitar
Intro Part 1:
      Tremolo pick each note. The timing is easy.
D-------------------------|
A-------------------------|
F--7----15---14---8---7---|
C-------------------------| (2X)
G--5---13---12---6---5----|
C-------------------------|

Verse: (This is just an approximate to help you start out. Its a good base
but its nowhere near perfect :P)

D---------------------------------------------------------------------------|
A---------------------------------------------------------------------------|
F---------------------------------------------------------------------------|
C-12h13p12p0-16-0-0-0-13-0-0-0-12-0-0-0-10-0-0-0-8-0-0-0-7------------------| (4x)
G-----------------------------------------------------------------0---------|
C---------------------------------------------------------0h1h4h5--5p4p1p0--|
                                                      ||This part 2x at end||
Interlude?:                  Play 2x
D--------------------------------------------------------------------------|
A--------------------------------------------------------------------------|
F--------11-12-14-12-11-------------11-12-14-12-11-------------------------|
C--12-13--------------13-12---12-13---------------13-12--12-12-12--12-12-12|
G--------------------------------------------------------------------------|
C--------------------------------------------------------------------------|

Break:                        Play 2x
D------------------------------------------------------------|
A------------------------------------------------------------|
F------------------------------------------------------------|
C------------------------------------------------------------|
G---------0------------------0-------------------------------|
C-0-1-4-5--5-4-1-0---0-1-4-5--5-4-1-0---0-0-0----0-0-0-------|

Pre-Chorus
Once again, all tremolo picked with basic rhythms
D------------------|
A------------------|
F--11--12--11---18-| (2x)
C------------------|
G--9---10---9---16-|
C------------------|

Chorus
D------------------------------------------------------------------------------------|
A------------------------------------------------------------------------------------|
F------------------------------------------------------------------------------------|
C-8------10-----12-----15-----14----12----15-----14----12-----------12---------------|
G-8(16x)--10(16x)-12(16x)-15(24x)-14(8x)-12(8x)-15-(8x)-14(8x)-12(8x)-------12-------|
C-8------10-----12-----15-----14----12----15-----14----12------10h12-----------------|

Then comes the build up and solo that I dont have figured out yet.
Pick it back up from after the breakdown because its a basic breakdown rhythm...and I'm lazy lol.

Pre-Chorus
Chorus (The second time through they just keep repeating 15, 14, 12
descending power chords and thats the song!)
_________________________________________________________________________________________________

Rhythm guitar

Intro Part 1:

D-------------------------|
A-------------------------|
F-------------------------|
C---0---8---7---1---0-----| (2X)
G---0---8---7---1---0-----|
C---0---8---7---1---0-----|

Verse: (The gaps are me attempting to show you the rhythms)

D---------------------------------------|
A---------------------------------------|
F---------------------------------------|
C--0----0-0--0-0--0---------------------|
G--0----0-0--0-0--0------------0--------|(Play the hammer-on/pull-off run at the
C--0----0-0--0-0--0----0h1h4h5---5p4p1p0| same time as lead)

Interlude?:                        Play 2x
D-----------------------------------------------------------------------------|
A-----------------------------------------------------------------------------|
F--------14-15-17-15-14--------------14-15-17-15-14---------------------------|
C--16-17--------------17-16----16-17---------------17-16--16-16-16--16-16-16--|
G-----------------------------------------------------------------------------|
C-----------------------------------------------------------------------------|

Break:                        Play 2x
D-----------------------------------------------------------------|
A-----------------------------------------------------------------|
F-----------------------------------------------------------------|
C-----------------------------------------------------------------|
G---------3-------------------3-----------------------------------|
C-4-5-7-8--8-7-5-4---4-5-7-8---8-7-5-4---4-4-4----4-4-4-----------|

I just put the rhythm guitar in as lead
for all the stuff i havent figured out yet.
I'll do my best to figure everything else
out. Sorry if anything is confusing.
If it is let me know in either an email or a
comment. thanks for checking out my tab!!
            
Hard to play? Try these video lessons and learn fast. | Correct




comments powered by Disqus
↑ Back to top | Tablatures and chords are parodies/interpretations of the original songs. You may use it for private study, scholarship, research or language learning purposes only