» » »

The Word Alive, Over The Mountain Tabs (ver.1)

Artists:  A B C D E F G H I J K L M N O P Q R S T U V W X Y Z # 

Over The Mountain Tabs (ver.1)

The Word Alive Tabs
 Rating:
4/5 (4 votes)
Over The Mountain lessons Tabs too difficult? Try these video lessons and learn fast
                The Word Alive
Over The Mountain(Ozzy Osbourne Cover{Diary Of A Madman})
Deceiver (Deluxe)/ Punk Goes X (2011)[Vol.1]

NOT GOING TO PUT SOLO ON JUST YET!!!

Drop C :(C-G-C-F-A-d) 
* :Palm Mute
x\\: Pick Scr*pe

Intro/Chorus:
(Lead Guitar) Delay Effect w/ Echo  Pre Verse
|---------------------------------------------|
|---------------------------------------------|
|--------14~--9~-7~-10-9--7~--------12-14-----|
|-----------------------------x2-----x--x-----|   
|x\\\\\\----------------------------10\12-----|
|x\\\\\\--------------------------------------|

(Rhythm Guitar)                     Pre-Verse
|---------------------------------------------|
|---------------------------------------------|
|-----------------------------------12\14-----|
|x\\\\\\\\-5-8-7\-0-000-0-00-0-x4----x--x-----|
|x\\\\\\\--5-8-7\-0-000-0-00-0------10\12-----|
|x\\\\\\---5-8-7\-0-000-0-00-0----------------|
                  * *** * ** *
Verse: (Both Guitars)
|--------------------------------------------------------------------------|
|-------------------------------------1-4/3--------------------------------|
|-----------------------------------2--------x4----------------------------|
|----------------5/2--------------2----------------------------------------|
|00000000000000--7/0-0000000000-3------------------------------------------|
|--------------------------------------------------------------------------|
 **************      ********** * * * * 
Pre-Chorus:
(Lead)
|-------------------------|
|-------------------------|
|--10~-9~-14--12----------|
|--x---x---x---x----------| x2
|--8~--7~-12~-10~---------|
|-------------------------|
(Ryhthm)
|--------------| 
|--------------|
|--------------|
|--3~-2~-7~-5~-|  x2
|--3~-2~-7~-5~-|
|--3~-2~-7~-5~-|

Intro/Chorus: x2
 
Verse 2:(Lead Guitar)
|----------------------------------------------------------------------|
|-------------------------------------1-4/3----------------------------|
|-----------------------------------2--------x4------------------------| x2
|----------------5/2--------------2------------------------------------|
|00000000000000--7/0-0000000000-3--------------------------------------|
|----------------------------------------------------------------------|
 **************      ********** * * * * 
|-----5-----5----56--------5------------------------------------------------|
|-----5-----5----56--------5-------1---4/3----------------------------------|
|--------------------------------2------------------------------------------|
|------------------------------2--------------------------------------------|
|00000-00000-000----000000---3----------------------------------------------|
|---------------------------------------------------------------------------|
 ***** ***** ***    ******   * * * * 
Verse 2:(Rhythm Guitar)
|--------------------------------------------------------------------------|
|-------------------------------------1-4/3--------------------------------|
|-----------------------------------2--------x4----------------------------|
|----------------5/2--------------2----------------------------------------|
|00000000000000--7/0-0000000000-3------------------------------------------|
|--------------------------------------------------------------------------|
 **************      ********** * * * * 

Pre-Chorus(Both Guitars) X2
Intro/Chorus(Both Guitars)X2

Bridge:(Lead Guitar)
|--------x5------|-------x5--------|----------------------------------------|
|----------------|-----------------|----------------------------------------|
|----------------|-----------------|----------------------------------------|
|--15--12121212--|---14---12121212-|----------------------------------------|
|----------------|-----------------|----------------------------------------|
|----------------|-----------------|----------------------------------------|  
    *    * * * *      *    * * * *
(Rhythm Guitar)
|----------------|-----------|---------------------------------------------|
|----x5----------|----x5-----|---------------------------------------------|
|----------------|-----------|---------------------------------------------|
|----------------|-----------|---------------------------------------------|
|---8---5555-----|---7--5555-|---------------------------------------------|
|----------------|-----------|---------------------------------------------|
    *   ****         *  ****
BreakDown:(If you want to call it that){Lead Guitar}
|---------------|--------------------|--------------------------------------|
|---------------|--------------------|--------------------------------------|
|------14\16----|------14\16-14\16/12|--x2----------------------------------|
|------14\16--x2|------14\16-14\16/12|--------------------------------------|
|--00--12\14----|--00--12\14-12\14/10|--------------------------------------|
|--00-----------|--00----------------|--------------------------------------|
(Rhythm Guitar)
|---------------------------|-----------------------------------------------|
|---------------------------|-----------------------------------------------|
|---------------------------|-----------------------------------------------|
|---------------------------|--x4-------------------------------------------|
|---------------------------|-----------------------------------------------|
|--00----00-----00--0-00-00-|-----------------------------------------------|

Pre-Solo:(Lead Guitar)
|--------------------|-------------------------------------------------------|
|-------10~----------|-------------------------------------------------------|
|-----------8~-7-5-0-|-x4----------------------------------------------------|
|----9~--------------|-------------------------------------------------------|
|--------------------|-------------------------------------------------------|
|--------------------|-------------------------------------------------------|
(Rhythm)
I haven't figured it out yet but its a bunch of 7's on the (Low)C String at at a 
point a slide or a whammy dive.

Solo:(Lead Guitar)
Coming, Maybe Soon!!

Intro/Chorus:(Both Guitars) x2

Verse 3:(Both Guitars){Same As Verse 2}x1

Bridge 2:(Both Guitars){Same As Bridge 1}x1

BreakDown 2:(Both Guitars){Same As BreakDown 1}x1

Intro/Chorus:(Both Guitars)x2

Intro/Chorus:(Both Guitars){Let Palm Mutes Ring Out}x3

The End...

The Word Alive FOR EVER!!!
            
Submit corrections

comments powered by Disqus
↑ Back to top | The Word Alive Tabs for Over The Mountain. Lyrics for acoustic guitar and electric guitar. Tablatures and chords are parodies/interpretations of the original songs. You may use it for private study, scholarship, research or language learning purposes only