» » »

Entirety Bass tabs (ver.1)

Artists:  A B C D E F G H I J K L M N O P Q R S T U V W X Y Z # 

Entirety Bass tabs (ver.1)

The Word Alive
Rating:
0/5 (0 votes)

Tabs too difficult? Try these video lessons and learn fast.
                -------------------------------------------------------------------------------
                             Entirety - The Word Alive 
-------------------------------------------------------------------------------



Tuning: Drop A


  "You're all I have!" (0:09-0:24) 
|---------------------------------------------------------------------------|
|---------------------------------------------------------------------------|
|---------------------------------------------------------------------------| x4
|-0(x8)-5(x4)/-8(x8)/-10(x4)------------------------------------------------|
        

   "I cant decide if I love it or hate it" (0:25-0:41) 
|---------------------------------------------------------------------------|
|---------------------------------------------------------------------------|
|---------------------------------------------------------------------------| x4
|-0-0-00-00-00-000-3333-5555------------------------------------------------|
  
 
 "its not something you can prepare for" (0:42-0:58) 

|---------------------------------------------------------------------------|
|---------------------------------------------------------------------------|
|---------------------------------------------------------------------------| x4
|-0-0--00-00-00-00-00--00-000-00------------------------------------------- |

  Chorus (0:59-1:15) Same rhythm as intro
|---------------------------------------------------------------------------|
|---------------------------------------------------------------------------|
|---------------------------------------------------------------------------| x4
|-0(x8)-5(x4)/-8(x8)/-10(x4)------------------------------------------------|
  
  Part with just Bass and percusion (1:16-1:32)

|---------------------------------------------------------------------------|
|---------------------------------------------------------------------------|
|---------------------------------------------------------------------------| x2
|-0-0-00-00-00-00-00-0-0-03~-0-0-00-00-00-00-00-0-0-03~---------------------|

|---------------------------------------------------------------------------|
|---------------------------------------------------------------------------|
|---------------------------------------------------------------------------| x2
|-5-0-00-00-00-00-00-0-0-03~-5-0-00-00-00-00-00-0-0-03~---------------------|
  
 
 (1:32-1:41) "You didnt seem to notice when I looked away" 
|---------------------------------------------------------------------------|
|---------------------------------------------------------------------------|
|---------------------------------------------------------------------------| x2
|-0-0-00-00-00-00-000-3333-5555----------------------------------------------|
 
  Chorus (1:43-2:05)

|---------------------------------------------------------------------------|
|---------------------------------------------------------------------------| 
|---------------------------------------------------------------------------| x4
|-0(x8)-5(x4)/-8(x8)/-10(x4)------------------------------------------------|
  
  (2:06-2:34) Let ring both times

|-----------------------------------------|
|-----------------------------------------|
|-----------------------------------------|
|--0--------------------0-----------------|
  
 
 "I'd loose everything!" (2:35-2:58)

|----------------------------|-----------------------------------------------|
|----------------------------|-----------------------------------------------|
|----------------------------|-----------------------------------------------| x8
|-000-00-0-0-000-00-0-0-0000-|-0000-00-0-0-000-00-0-0-0000-------------------|

  "You're all I have!"(3:00-3:16) pretty much the chorus played with whole notes. 

|---------------------------------------------------------------------------|
|---------------------------------------------------------------------------|
|---------------------------------------------------------------------------| x4
|--0-------5/--8/-----10----------------------------------------------------|

  (3:17-3:51) 
|---------------------------------------------------------------------------|
|---------------------------------------------------------------------------|
|---------------------------------------------------------------------------| x8
|--0(x8)-5(x4)-8(x8)-10(x4)-------------------------------------------------|


| /  slide up
| \  slide down
| h  hammer-on
| p  pull-off
| ~  vibrato
| +  harmonic
| x  Mute note
===============================================================================
            
Tabs too difficult? Try these video lessons and learn fast.




comments powered by Disqus
↑ Back to top | Tablatures and chords are parodies/interpretations of the original songs. You may use it for private study, scholarship, research or language learning purposes only