>
 >
Casanova Rodeo 2

Casanova Rodeo 2 Guitar Tabs

The Word Alive - Casanova Rodeo 2 chords, tabs, tablatures, lyrics

Guitar lessons | Add/correct | Request | Top 50 tabs Artists:  A B C D E F G H I J K L M N O P Q R S T U V W X Y Z 0-9

Casanova Rodeo 2 Guitar Tabs – The Word Alive

CD, Sheet music, Poster

Do you like Casanova Rodeo 2? Share with your friends now
TabsTabs v2Tabs v3
Casanova Rodeo

The other tabs just seemed a bit off to me so I figured out and decided to pay it
=D Sounds pretty damn accurate to me =D
This is my first tab so comments/corrections/questions are welcome =D
Im just gonna merge both the guitar parts and tab it out just like I play it
Have fun!

Let the first open chord ring after the slide until the first guitar fades out

E|---------------------------------------------------------|
B|---------------------------------------------------------|
G|---------------------------------------------------------|
D|-12/--0-------0-00-0-0-00-0-0-00-0-0-00-0----------------|
A|-12/--0-------0-00-0-0-00-0-0-00-0-0-00-0----------------|
D|-12/--0-------0-00-0-0-00-0-0-00-0-0-00-0----------------|

On the 3h5p3p0 you do the pull-offs at almost double speed (Repeats 4X)

E|---------------------------------------------------------|
B|---------------------------------------------------------|
G|---------------------------------------------------------|
D|-12-10h12p10-/8-7h8p7------------------------------------|
A|---------------------10-8h10p8-/7-5h7p5------------------|
D|-----------------------------------------5h7p5-3h5p3p0---|

(Repeats 4X) On the second and fourth time you only hit the 3 on the D string once. Just 
for it

E|---------------------------------------------------------|
B|---------------------------------------------------------|
G|---------------------------------------------------------|
D|---------------------------------------------------------|
A|---------------------------------------------------------|
D|-12-0000-12-0-12-000-12-00000000-12-0-12-----5555-3333---|

This part is a bit tricky but it sounds sick when you play it right =D

E|---------------------------------------------------------|
B|---------------------------------------------------------|
G|-7------7-7----7------7-7----15------14------------------|
D|-X-0000-X-X-00-X-0000-X-X-00--X-(X4)--X-(X4)-------------|
A|-5-0000-5-5-00-5-0000-5-5-00-13------12------------------|
D|---0000-----00---0000-----00-----------------------------|
     ....     ..   ....     ..

E|---------------------------------------------------------|
B|---------------------------------------------------------|
G|-7------7-7----7------7-7----10------9-------------------|
D|-X-0000-X-X-00-X-0000-X-X-00--X-(X4)-X-(X4)--------------|
A|-5-0000-5-5-00-5-0000-5-5-00--8------7-------------------|
D|---0000-----00---0000-----00-----------------------------|
     ....     ..   ....     ..

E|---------------------------------------------------------|
B|---------------------------------------------------------|
G|---------------------------------------------------------|
D|---------------------------------------------------------|
A|---------------------------------------------------------|
D|-12-0000-12-0-12-000-12-00000000-12-0-12-----5555-3333---|

E|---------------------------------------------------------|
B|---------------------------------------------------------|
G|---------------------------------------------------------|
D|--------------------------------------------------7*-----|
A|---------------------------------------------------------|
D|-12-0000-12-0-12-000-12-00000000-12-0-12-----5555--------|

Repeat these next two bars twice

E|---------------------------------------------------------|
B|---------------------------------------------------------|
G|-7------7-7----7------7-7----15------14------------------|
D|-X-0000-X-X-00-X-0000-X-X-00--X-(X4)--X-(X4)-------------|
A|-5-0000-5-5-00-5-0000-5-5-00-13------12------------------|
D|---0000-----00---0000-----00-----------------------------|
     ....     ..   ....     ..

E|---------------------------------------------------------|
B|---------------------------------------------------------|
G|-7------7-7----7------7-7----10------9-------------------|
D|-X-0000-X-X-00-X-0000-X-X-00--X-(X4)-X-(X4)--------------|
A|-5-0000-5-5-00-5-0000-5-5-00--8------7-------------------|
D|---0000-----00---0000-----00-----------------------------|
     ....     ..   ....     ..

Epic breakdown =D
(Repeats 2X)
(Repeat the 10p0 7p0 4X) I like to tap these to give them full effect
E|----------------------------------------------------------------|
B|-----------------------------10p0-10p0--------------------------|
G|---------------------------------------7p0-7p0------------------|
D|-000000-000000-000000-000000------------------------------------|
A|-000000-000000-000000-000000------------------------------------|
D|-000000-000000-000000-000000------------------------------------|
   ...... ...... ...... ......
                         --------------------
(Repeats 2X)             |                  | (Thats an arrow showing
(Repeat the 10p0 7p0 4X) |                  V  what part I mean =D)
E|----------------------------------------------------------------|
B|-10p0-(4X)-11p0-(4X)-8p0-(4X)-10p0-(4X)--10p0-10p0--------------|
G|---------------------------------------------------7p0-7p0------|
D|----------------------------------------------------------------|
A|----------------------------------------------------------------|
D|----------------------------------------------------------------|

E|----------------------------------------------------------------|
B|----------------------------------------------------------------|
G|----------------------------------------------------------------|
D|-000000-------00-00-0-0-00-00-0-00000000------------------------|
A|-000000-(8X)--00-00-0-0-00-00-0-00000000-(2X)-------------------|
D|-000000-------00-00-0-0-00-00-0-00000000------------------------|
   ......       .. .. . . .. .. . ........

Let the open chord ring

E|-----------------------------------------------------------|
B|-----------------------------------------------------------|
G|-----------------------------------------------------------|
D|-0---------------------------------------------------------|
A|-0---------------------------------------------------------|
D|-0---12-0000-12-0-12-000-12-00000000-12-0-12-----5555-3333-|

E|---------------------------------------------------------|
B|---------------------------------------------------------|
G|---------------------------------------------------------|
D|---------------------------------------------------------|
A|---------------------------------------------------------|
D|-12-0000-12-0-12-000-12-00000000-12-0-12-----5-----------|

This part is kinda tough to hear (Repeats 4X)

E|---------------------------------------------------------|
B|---------------------------------------------------------|
G|---------------------------------------------------------|
D|---------------------------------------------------------|
A|---------------------------------------------------------|
D|-1-0000-1-0-1-000-1-0000-1-0000-1-0-5h85h8-4h74h7--------|

(Repeats 2X)
(Repeat the 10p0 7p0 4X) I like to tap these to give them full effect
E|----------------------------------------------------------------|
B|-----------------------------10p0-10p0--------------------------|
G|---------------------------------------7p0-7p0------------------|
D|-000000-000000-000000-000000------------------------------------|
A|-000000-000000-000000-000000------------------------------------|
D|-000000-000000-000000-000000------------------------------------|
   ...... ...... ...... ......

E|-----------------------------------------------------------------|
B|---------------------------------10p0-10p0-----------------------|
G|-14------14------15------12----------------7p0-7p0-9-----10------|
D|--X-(X6)--X-(X6)--X-(X6)--X-(X6)-------------------X-(X8)-X------|(X8)
A|-12------12------13------10------------------------7------8------|
D|-----------------------------------------------------------------|


E|-----------------------------------------------------------------|
B|---------------------------------10p0-10p0-----------------------|
G|-14------14------15------12----------------7p0-7p0-9------7------|
D|--X-(X6)--X-(X6)--X-(X6)--X-(X6)-------------------X-(X8)-X------|(X8)
A|-12------12------13------10------------------------7------5------|
D|-----------------------------------------------------------------|

Now remember I integrated both guitars so this is the way I play it when Im by myself.
there arent any pinch harmonics at this part of the song but I just play them because
sound cool =D

E|---------------------------------------------------------------|
B|---------------------------------------------------------------|
G|-7h10p7--------------------------------------------2---2h3p2---|
D|--------8-7-5-7-5----------------3---5-3-2-------------------3-|
A|------------------7-5-(5*)---5-5---5-------5---4-4---4---------|
D|---------------------------------------------------------------|

E|--------------------------------------------------------------------------|
B|--------------------------------------------------------------------------|
G|-7h10p7-------------2hp3p2------------------------------------2---2h3p2---|
D|--------8-7-5-7-5----------3-2-0-2-3-2------3---5-3-2-------------------3-|
A|------------------7---------------------5-5---5-------5---4-4---4---------|
D|--------------------------------------------------------------------------|

E|---------------------------------------------------------------|
B|---------------------------------------------------------------|
G|-7h10p7--------------------------------------------2---2h3p2---|
D|--------8-7-5-7-5----------------3---5-3-2-------------------3-|
A|------------------7-5-(5*)---5-5---5-------5---4-4---4---------|
D|---------------------------------------------------------------|

E|---------------------------------------------------------------------------|
B|---------------------------------------------------------------------------|
G|-7h10p7-------------2hp3p2------------------------------------2---2h3p2----|
D|--------8-7-5-7-5----------3-2-0-2-3-2------3---5-3-2-------------------3*-|
A|------------------7---------------------5-5---5-------5---4-4---4----------|
D|---------------------------------------------------------------------------|

E|----------------------------------------------------------|
B|----------------------------------------------------------|
G|----------------------------------------------------------|
D|-0~-------------------------------------------------------|
A|-0~-------------------------------------------------------|
D|-0~-------------------------------------------------------|

There you go =D
Comments/Questions/Concerns?
Just comment or message me =D
Have fun!





Comments


Popular The Word Alive tabs & chords
2012 Bass Tabs
Like Father Like Son Bass Tabs
Are You On Drugs Tabs
How To Build An Empire 2 Tabs
Lights And Stones Tabs
Like Father Like Son Tabs
Over The Mountain Tabs
The Devil Inside 1 Tabs
The Hounds Of Anubis Tabs
The Hounds Of Anubis 3 Tabs


Song lyrics



↑ Back to top | Tablatures and chords are parodies/interpretations of the original songs. You may use it for private study, scholarship, research or language learning purposes only
© 2014 AZChords.com Contact us | Privacy policy | DMCA | Add/correct tabs | Request tabs | Top 50 tabs