» » »

The Word Alive, Casanova Rodeo Tabs (ver.2)

Artists:  A B C D E F G H I J K L M N O P Q R S T U V W X Y Z # 

Casanova Rodeo Tabs (ver.2)

The Word Alive Tabs
Rating:
0/5 (0 votes)
Casanova Rodeo lessons Tabs too difficult? Try these video lessons and learn fast
                INTRO-1
E|---------------------------------------------------------|
B|---------------------------------------------------------|
G|---------------------------------------------------------|
D|---------------------------------------------------------|
A|------0-00-0-0-00-0-0-00-0-0-00-0------------------------|
D|-///--0-00-0-0-00-0-0-00-0-0-00-0------------------------|

INTRO-2:X4
E|---------------------------------------------------------|
B|---------------------------------------------------------|
G|---------------------------------------------------------|
D|-12-10h12p10-/8-7h8p7------------------------------------|
A|---------------------10-7h10p7-/7-5h7p5------------------|
D|---------------------------------------7-5h7p5-3h5p3p0---|

VERSE-1:X4(Moderate Tremlo Speed)
E|---------------------------------------------------------|
B|---------------------------------------------------------|
G|---------------------------------------------------------|
D|---------------------------------------------------------|
A|---------------------------------------------------------|
D|-12-0000-12-0-12-000-12-00000000-12-0-12-5555-3333-------|

VERSE-2:x2
E|---------------------------------------------------------|
B|---------------------------------------------------------|
G|-14xxx14xxx14xxx14x14-12-12-12-12-10101010---------------|
D|-x----x----x----x--x--x-x-x-x--x--x-x-x-x----------------|
A|-12xxx12xxx12xxx12x12-10-10-10-10-8-8-8-8----------------|
D|---------------------------------------------------------|

(VERSE-1)X2
(VERSE-2)X4

BREAKDOWN-1:X4                                  
E|---------------------------------------------------------|
B|--------------------------<8H10P8H10P8--------->X4-------|
G|--------------------------<-----------7H9P7H9P7>---------|
D|---------------------------------------------------------|
A|-00000-000000-00000-00000--------------------------------|
D|-00000-000000-00000-00000--------------------------------|

BREAKDOWN-2
E|---------------------------------------------------------|
B|---------------------------------------------------------|
G|---------------------------------------------------------|
D|---------------------------------------------------------|
A|-00000------0-0-00-0-0-00-000000-0-0-00----0-0-00-000000-|
D|-00000-(X8)-0-0-00-0-0-00-000000-0-0-00-*3-0-0-00-000000-|

(VERSE-1)
(VERSE-2)X4

ENDING
E|-----------------------------------------------------------------------|
B|-----------------------------------------------------------------------|
G|-----------------2h3p2-------------------------------------------------|
D|-7h8p7-----------------532-------3--2---5--3--2h3p2--------------------|
A|-------1087----------------535-55--5--55-55-5-------3------------------|
D|------------10810------------------------------------------------------|
            
Submit corrections

comments powered by Disqus
↑ Back to top | The Word Alive Tabs for Casanova Rodeo. Lyrics for acoustic guitar and electric guitar. Tablatures and chords are parodies/interpretations of the original songs. You may use it for private study, scholarship, research or language learning purposes only